  0
SECTION
  2
HEADER
  9
$ACADVER
  1
AC1006
  9
$AXISMODE
 70
     0
  9
$AXISUNIT
 10
0.0625
 20
0.0625
  9
$CECOLOR
 62
0
  9
$CELTYPE
  6
CONTINUOUS
  9
$CLAYER
  8
LAYER1
  9
$EXTMIN
 10
0
 20
0
  9
$EXTMAX
 10
7.6667
 20
10.8728
  9
$LIMMIN
 10
0
 20
0
  9
$LIMMAX
 10
7.6667
 20
10.8728
  9
$GRIDMODE
 70
     0
  9
$GRIDUNIT
 10
0.125
 20
0.125
  9
$MIRRTEXT
 70
     1
  9
$SNAPMODE
 70
     1
  9
$SNAPUNIT
 10
0.125
 20
0
  9
$SNAPSTYLE
 70
     0
  9
$SPLINESEGS
 70
     8
  9
$SPLINETYPE
 70
     6
  0
ENDSEC
  0
SECTION
  2
TABLES
  0TABLE  2VPORT 70     2  0VPORT  2*ACTIVE 70     0 100.0 200.0 111.0 211.0 1213.01087 224.5 130.0 230.0 141.0 241.0 150.0 250.0 160.0 260.0 361.0 170.0 270.0 370.0 409.0 412.891304 4250.0 430.0 440.0 500.0 510.0 71     0 72   100 73     1 74     1 75     0 76     0 77     0 78     0  0ENDTAB
  0
TABLE
  2
LTYPE
 70
     1
  0
LTYPE
  2
CONTINUOUS
 70
    64
  3
Descriptive Text
 72
    65
 73
     0
 40
0
  0
ENDTAB
  0
TABLE
  2
LAYER
 70
     1
  0
LAYER
  2
LAYER1
 70
     0
 62
     7
  6
CONTINUOUS
  0
ENDTAB
  0TABLE  2STYLE 70     1  0STYLE  2STANDARD 70     0 400.0 411.0 500.0 71     0 420.2  3txt  4  0ENDTAB
  0
TABLE
  2
VIEW
 70
     0
  0
ENDTAB
  0
TABLE
  2
UCS
 70
     0
  0
ENDTAB
  0
TABLE
  2
DWGMGR
 70
     0
  0
ENDTAB
  0
ENDSEC
  0
SECTION
  2
BLOCKS
  0
BLOCK
  8
LAYER1
  2
Group1
 70
     0
 10
0
 20
0
 30
0
  0
LINE
  8
LAYER1
  6
CONTINUOUS
 62
     7
 10
0.1944
 20
10.8173
 30
0
 11
4.6944
 21
10.8173
 31
0
  0
TEXT
  8
LAYER1
 62
     7
 10
0.2033
 20
10.5874
 30
0
 40
0.125
  1
Combination Sections Channels and Angles
 50
0
999
Geneva
  0
ENDBLK
  8
LAYER1
  0
BLOCK
  8
LAYER1
  2
Group2
 70
     0
 10
0
 20
0
 30
0
  0
LINE
  8
LAYER1
  6
CONTINUOUS
 62
     7
 10
0.2083
 20
10.5256
 30
0
 11
4.7083
 21
10.5256
 31
0
  0
POLYLINE
  8
LAYER1
  6
CONTINUOUS
 62
     7
 66
     1
 70
     0
 40
0.001
 41
0.001
  0
VERTEX
  8
LAYER1
 10
1.3056
 20
10.0812
 30
0
 70
     0
  0
VERTEX
  8
LAYER1
 10
1.3056
 20
10.0812
 30
0
 70
     0
  0
VERTEX
  8
LAYER1
 10
1.3056
 20
10.0812
 30
0
 70
     0
  0
VERTEX
  8
LAYER1
 10
1.3194
 20
10.1089
 30
0
 70
     0
  0
VERTEX
  8
LAYER1
 10
1.3194
 20
10.1089
 30
0
 70
     0
  0
VERTEX
  8
LAYER1
 10
1.3194
 20
10.1089
 30
0
 70
     0
  0
VERTEX
  8
LAYER1
 10
1.3472
 20
10.1228
 30
0
 70
     0
  0
VERTEX
  8
LAYER1
 10
1.3472
 20
10.1228
 30
0
 70
     0
  0
SEQEND
  0
POLYLINE
  8
LAYER1
  6
CONTINUOUS
 62
     7
 66
     1
 70
     0
 40
0.001
 41
0.001
  0
VERTEX
  8
LAYER1
 10
1.3472
 20
9.6645
 30
0
 70
     0
  0
VERTEX
  8
LAYER1
 10
1.3472
 20
9.6645
 30
0
 70
     0
  0
VERTEX
  8
LAYER1
 10
1.3333
 20
9.6645
 30
0
 70
     0
  0
VERTEX
  8
LAYER1
 10
1.3194
 20
9.6784
 30
0
 70
     0
  0
VERTEX
  8
LAYER1
 10
1.3194
 20
9.6784
 30
0
 70
     0
  0
VERTEX
  8
LAYER1
 10
1.3056
 20
9.6923
 30
0
 70
     0
  0
VERTEX
  8
LAYER1
 10
1.3056
 20
9.7062
 30
0
 70
     0
  0
SEQEND
  0
LINE
  8
LAYER1
  6
CONTINUOUS
 62
     7
 10
1.3056
 20
10.0812
 30
0
 11
1.3056
 21
9.7062
 31
0
  0
POLYLINE
  8
LAYER1
  6
CONTINUOUS
 62
     7
 66
     1
 70
     0
 40
0.001
 41
0.001
  0
VERTEX
  8
LAYER1
 10
1.2917
 20
10.1506
 30
0
 70
     0
  0
VERTEX
  8
LAYER1
 10
1.2917
 20
9.6506
 30
0
 70
     0
  0
VERTEX
  8
LAYER1
 10
1.4444
 20
9.6506
 30
0
 70
     0
  0
SEQEND
  0
LINE
  8
LAYER1
  6
CONTINUOUS
 62
     7
 10
1.2917
 20
10.1506
 30
0
 11
1.4444
 21
10.1506
 31
0
  0
POLYLINE
  8
LAYER1
  6
CONTINUOUS
 62
     7
 66
     1
 70
     0
 40
0.001
 41
0.001
  0
VERTEX
  8
LAYER1
 10
1.4444
 20
10.1367
 30
0
 70
     0
  0
VERTEX
  8
LAYER1
 10
1.4444
 20
10.1367
 30
0
 70
     0
  0
VERTEX
  8
LAYER1
 10
1.4444
 20
10.1228
 30
0
 70
     0
  0
VERTEX
  8
LAYER1
 10
1.4444
 20
10.1228
 30
0
 70
     0
  0
SEQEND
  0
LINE
  8
LAYER1
  6
CONTINUOUS
 62
     7
 10
1.4444
 20
10.1506
 30
0
 11
1.4444
 21
10.1367
 31
0
  0
LINE
  8
LAYER1
  6
CONTINUOUS
 62
     7
 10
1.3472
 20
10.1228
 30
0
 11
1.4444
 21
10.1228
 31
0
  0
POLYLINE
  8
LAYER1
  6
CONTINUOUS
 62
     7
 66
     1
 70
     0
 40
0.001
 41
0.001
  0
VERTEX
  8
LAYER1
 10
1.4444
 20
9.6645
 30
0
 70
     0
  0
VERTEX
  8
LAYER1
 10
1.4444
 20
9.6645
 30
0
 70
     0
  0
VERTEX
  8
LAYER1
 10
1.4444
 20
9.6506
 30
0
 70
     0
  0
SEQEND
  0
ENDBLK
  8
LAYER1
  0
BLOCK
  8
LAYER1
  2
Group3
 70
     0
 10
0
 20
0
 30
0
  0
LINE
  8
LAYER1
  6
CONTINUOUS
 62
     7
 10
1.3472
 20
9.6645
 30
0
 11
1.4444
 21
9.6645
 31
0
  0
LINE
  8
LAYER1
  6
CONTINUOUS
 62
     7
 10
1.4167
 20
9.6645
 30
0
 11
1.4028
 21
9.6506
 31
0
  0
LINE
  8
LAYER1
  6
CONTINUOUS
 62
     7
 10
1.3194
 20
9.6923
 30
0
 11
1.2917
 21
9.6645
 31
0
  0
LINE
  8
LAYER1
  6
CONTINUOUS
 62
     7
 10
1.3056
 20
9.8173
 30
0
 11
1.2917
 21
9.8034
 31
0
  0
LINE
  8
LAYER1
  6
CONTINUOUS
 62
     7
 10
1.3056
 20
9.9423
 30
0
 11
1.2917
 21
9.9284
 31
0
  0
LINE
  8
LAYER1
  6
CONTINUOUS
 62
     7
 10
1.375
 20
10.1506
 30
0
 11
1.3472
 21
10.1228
 31
0
  0
LINE
  8
LAYER1
  6
CONTINUOUS
 62
     7
 10
1.3056
 20
10.0812
 30
0
 11
1.2917
 21
10.0673
 31
0
  0
LINE
  8
LAYER1
  6
CONTINUOUS
 62
     7
 10
1.3333
 20
9.6645
 30
0
 11
1.3194
 21
9.6506
 31
0
  0
LINE
  8
LAYER1
  6
CONTINUOUS
 62
     7
 10
1.3056
 20
9.7756
 30
0
 11
1.2917
 21
9.7478
 31
0
  0
LINE
  8
LAYER1
  6
CONTINUOUS
 62
     7
 10
1.3056
 20
9.9006
 30
0
 11
1.2917
 21
9.8867
 31
0
  0
LINE
  8
LAYER1
  6
CONTINUOUS
 62
     7
 10
1.4167
 20
10.1506
 30
0
 11
1.3889
 21
10.1228
 31
0
  0
ENDBLK
  8
LAYER1
  0
BLOCK
  8
LAYER1
  2
Group4
 70
     0
 10
0
 20
0
 30
0
  0
INSERT
  8
LAYER1
  2
Group2
 10
0
 20
0
 30
0
  0
INSERT
  8
LAYER1
  2
Group3
 10
0
 20
0
 30
0
  0
ENDBLK
  8
LAYER1
  0
BLOCK
  8
LAYER1
  2
Group5
 70
     0
 10
0
 20
0
 30
0
  0
LINE
  8
LAYER1
  6
CONTINUOUS
 62
     7
 10
1.3056
 20
10.0395
 30
0
 11
1.2917
 21
10.0256
 31
0
  0
LINE
  8
LAYER1
  6
CONTINUOUS
 62
     7
 10
1.2917
 20
9.6506
 30
0
 11
1
 21
9.6506
 31
0
  0
LINE
  8
LAYER1
  6
CONTINUOUS
 62
     7
 10
1.2917
 20
9.6506
 30
0
 11
1.2917
 21
9.9006
 31
0
  0
POLYLINE
  8
LAYER1
  6
CONTINUOUS
 62
     7
 66
     1
 70
     0
 40
0.001
 41
0.001
  0
VERTEX
  8
LAYER1
 10
1
 20
9.6506
 30
0
 70
     0
  0
VERTEX
  8
LAYER1
 10
1
 20
9.6506
 30
0
 70
     0
  0
VERTEX
  8
LAYER1
 10
1
 20
9.6506
 30
0
 70
     0
  0
VERTEX
  8
LAYER1
 10
1.0139
 20
9.6645
 30
0
 70
     0
  0
VERTEX
  8
LAYER1
 10
1.0139
 20
9.6645
 30
0
 70
     0
  0
VERTEX
  8
LAYER1
 10
1.0139
 20
9.6645
 30
0
 70
     0
  0
VERTEX
  8
LAYER1
 10
1.0278
 20
9.6784
 30
0
 70
     0
  0
VERTEX
  8
LAYER1
 10
1.0278
 20
9.6784
 30
0
 70
     0
  0
SEQEND
  0
POLYLINE
  8
LAYER1
  6
CONTINUOUS
 62
     7
 66
     1
 70
     0
 40
0.001
 41
0.001
  0
VERTEX
  8
LAYER1
 10
1.2639
 20
9.8589
 30
0
 70
     0
  0
VERTEX
  8
LAYER1
 10
1.2639
 20
9.8589
 30
0
 70
     0
  0
VERTEX
  8
LAYER1
 10
1.2639
 20
9.8589
 30
0
 70
     0
  0
VERTEX
  8
LAYER1
 10
1.2639
 20
9.8728
 30
0
 70
     0
  0
VERTEX
  8
LAYER1
 10
1.2639
 20
9.8867
 30
0
 70
     0
  0
VERTEX
  8
LAYER1
 10
1.2639
 20
9.8867
 30
0
 70
     0
  0
VERTEX
  8
LAYER1
 10
1.2917
 20
9.9006
 30
0
 70
     0
  0
VERTEX
  8
LAYER1
 10
1.2917
 20
9.9006
 30
0
 70
     0
  0
SEQEND
  0
POLYLINE
  8
LAYER1
  6
CONTINUOUS
 62
     7
 66
     1
 70
     0
 40
0.001
 41
0.001
  0
VERTEX
  8
LAYER1
 10
1.2639
 20
9.7201
 30
0
 70
     0
  0
VERTEX
  8
LAYER1
 10
1.2639
 20
9.7201
 30
0
 70
     0
  0
VERTEX
  8
LAYER1
 10
1.2639
 20
9.7062
 30
0
 70
     0
  0
VERTEX
  8
LAYER1
 10
1.2639
 20
9.6923
 30
0
 70
     0
  0
VERTEX
  8
LAYER1
 10
1.25
 20
9.6923
 30
0
 70
     0
  0
VERTEX
  8
LAYER1
 10
1.2361
 20
9.6784
 30
0
 70
     0
  0
VERTEX
  8
LAYER1
 10
1.2361
 20
9.6784
 30
0
 70
     0
  0
VERTEX
  8
LAYER1
 10
1.2222
 20
9.6784
 30
0
 70
     0
  0
SEQEND
  0
LINE
  8
LAYER1
  6
CONTINUOUS
 62
     7
 10
1.2222
 20
9.6784
 30
0
 11
1.0278
 21
9.6784
 31
0
  0
ENDBLK
  8
LAYER1
  0
BLOCK
  8
LAYER1
  2
Group6
 70
     0
 10
0
 20
0
 30
0
  0
LINE
  8
LAYER1
  6
CONTINUOUS
 62
     7
 10
1.2639
 20
9.7201
 30
0
 11
1.2639
 21
9.8589
 31
0
  0
LINE
  8
LAYER1
  6
CONTINUOUS
 62
     7
 10
1.2917
 20
9.7617
 30
0
 11
1.2639
 21
9.7895
 31
0
  0
LINE
  8
LAYER1
  6
CONTINUOUS
 62
     7
 10
1.2778
 20
9.6506
 30
0
 11
1.2361
 21
9.6784
 31
0
  0
LINE
  8
LAYER1
  6
CONTINUOUS
 62
     7
 10
1.1389
 20
9.6506
 30
0
 11
1.1111
 21
9.6784
 31
0
  0
LINE
  8
LAYER1
  6
CONTINUOUS
 62
     7
 10
1.0139
 20
9.6506
 30
0
 11
1
 21
9.6506
 31
0
  0
LINE
  8
LAYER1
  6
CONTINUOUS
 62
     7
 10
1.2917
 20
9.8034
 30
0
 11
1.2639
 21
9.8312
 31
0
  0
LINE
  8
LAYER1
  6
CONTINUOUS
 62
     7
 10
1.2917
 20
9.6784
 30
0
 11
1.2639
 21
9.7062
 31
0
  0
LINE
  8
LAYER1
  6
CONTINUOUS
 62
     7
 10
1.1806
 20
9.6506
 30
0
 11
1.1528
 21
9.6784
 31
0
  0
ENDBLK
  8
LAYER1
  0
BLOCK
  8
LAYER1
  2
Group7
 70
     0
 10
0
 20
0
 30
0
  0
INSERT
  8
LAYER1
  2
Group5
 10
0
 20
0
 30
0
  0
INSERT
  8
LAYER1
  2
Group6
 10
0
 20
0
 30
0
  0
ENDBLK
  8
LAYER1
  0
BLOCK
  8
LAYER1
  2
Group8
 70
     0
 10
0
 20
0
 30
0
  0
INSERT
  8
LAYER1
  2
Group4
 10
0
 20
0
 30
0
  0
INSERT
  8
LAYER1
  2
Group7
 10
0
 20
0
 30
0
  0
ENDBLK
  8
LAYER1
  0
BLOCK
  8
LAYER1
  2
Group9
 70
     0
 10
0
 20
0
 30
0
  0
LINE
  8
LAYER1
  6
CONTINUOUS
 62
     7
 10
1.0556
 20
9.6506
 30
0
 11
1.0278
 21
9.6784
 31
0
  0
LINE
  8
LAYER1
  6
CONTINUOUS
 62
     7
 10
1.375
 20
8.0673
 30
0
 11
1.0833
 21
8.0673
 31
0
  0
LINE
  8
LAYER1
  6
CONTINUOUS
 62
     7
 10
1.375
 20
8.0673
 30
0
 11
1.375
 21
8.3173
 31
0
  0
POLYLINE
  8
LAYER1
  6
CONTINUOUS
 62
     7
 66
     1
 70
     0
 40
0.001
 41
0.001
  0
VERTEX
  8
LAYER1
 10
1.0833
 20
8.0812
 30
0
 70
     0
  0
VERTEX
  8
LAYER1
 10
1.0833
 20
8.0812
 30
0
 70
     0
  0
VERTEX
  8
LAYER1
 10
1.0833
 20
8.0951
 30
0
 70
     0
  0
VERTEX
  8
LAYER1
 10
1.0833
 20
8.0951
 30
0
 70
     0
  0
VERTEX
  8
LAYER1
 10
1.1111
 20
8.1089
 30
0
 70
     0
  0
VERTEX
  8
LAYER1
 10
1.1111
 20
8.1089
 30
0
 70
     0
  0
SEQEND
  0
LINE
  8
LAYER1
  6
CONTINUOUS
 62
     7
 10
1.0833
 20
8.0673
 30
0
 11
1.0833
 21
8.0812
 31
0
  0
POLYLINE
  8
LAYER1
  6
CONTINUOUS
 62
     7
 66
     1
 70
     0
 40
0.001
 41
0.001
  0
VERTEX
  8
LAYER1
 10
1.3472
 20
8.2895
 30
0
 70
     0
  0
VERTEX
  8
LAYER1
 10
1.3472
 20
8.2895
 30
0
 70
     0
  0
VERTEX
  8
LAYER1
 10
1.3472
 20
8.2895
 30
0
 70
     0
  0
VERTEX
  8
LAYER1
 10
1.3472
 20
8.3034
 30
0
 70
     0
  0
VERTEX
  8
LAYER1
 10
1.3472
 20
8.3173
 30
0
 70
     0
  0
VERTEX
  8
LAYER1
 10
1.3611
 20
8.3173
 30
0
 70
     0
  0
VERTEX
  8
LAYER1
 10
1.375
 20
8.3173
 30
0
 70
     0
  0
VERTEX
  8
LAYER1
 10
1.375
 20
8.3173
 30
0
 70
     0
  0
SEQEND
  0
POLYLINE
  8
LAYER1
  6
CONTINUOUS
 62
     7
 66
     1
 70
     0
 40
0.001
 41
0.001
  0
VERTEX
  8
LAYER1
 10
1.3472
 20
8.1367
 30
0
 70
     0
  0
VERTEX
  8
LAYER1
 10
1.3472
 20
8.1367
 30
0
 70
     0
  0
VERTEX
  8
LAYER1
 10
1.3472
 20
8.1228
 30
0
 70
     0
  0
VERTEX
  8
LAYER1
 10
1.3472
 20
8.1228
 30
0
 70
     0
  0
VERTEX
  8
LAYER1
 10
1.3333
 20
8.1228
 30
0
 70
     0
  0
VERTEX
  8
LAYER1
 10
1.3194
 20
8.1089
 30
0
 70
     0
  0
VERTEX
  8
LAYER1
 10
1.3194
 20
8.1089
 30
0
 70
     0
  0
VERTEX
  8
LAYER1
 10
1.3056
 20
8.1089
 30
0
 70
     0
  0
SEQEND
  0
LINE
  8
LAYER1
  6
CONTINUOUS
 62
     7
 10
1.3056
 20
8.1089
 30
0
 11
1.1111
 21
8.1089
 31
0
  0
ENDBLK
  8
LAYER1
  0
BLOCK
  8
LAYER1
  2
Group10
 70
     0
 10
0
 20
0
 30
0
  0
LINE
  8
LAYER1
  6
CONTINUOUS
 62
     7
 10
1.3472
 20
8.1367
 30
0
 11
1.3472
 21
8.2895
 31
0
  0
LINE
  8
LAYER1
  6
CONTINUOUS
 62
     7
 10
1.375
 20
8.1923
 30
0
 11
1.3472
 21
8.2201
 31
0
  0
LINE
  8
LAYER1
  6
CONTINUOUS
 62
     7
 10
1.3611
 20
8.0673
 30
0
 11
1.3194
 21
8.1089
 31
0
  0
LINE
  8
LAYER1
  6
CONTINUOUS
 62
     7
 10
1.2222
 20
8.0673
 30
0
 11
1.1944
 21
8.1089
 31
0
  0
LINE
  8
LAYER1
  6
CONTINUOUS
 62
     7
 10
1.0972
 20
8.0673
 30
0
 11
1.0833
 21
8.0812
 31
0
  0
LINE
  8
LAYER1
  6
CONTINUOUS
 62
     7
 10
1.375
 20
8.2339
 30
0
 11
1.3472
 21
8.2617
 31
0
  0
LINE
  8
LAYER1
  6
CONTINUOUS
 62
     7
 10
1.375
 20
8.0951
 30
0
 11
1.3333
 21
8.1367
 31
0
  0
LINE
  8
LAYER1
  6
CONTINUOUS
 62
     7
 10
1.2639
 20
8.0673
 30
0
 11
1.2361
 21
8.1089
 31
0
  0
ENDBLK
  8
LAYER1
  0
BLOCK
  8
LAYER1
  2
Group11
 70
     0
 10
0
 20
0
 30
0
  0
INSERT
  8
LAYER1
  2
Group9
 10
0
 20
0
 30
0
  0
INSERT
  8
LAYER1
  2
Group10
 10
0
 20
0
 30
0
  0
ENDBLK
  8
LAYER1
  0
BLOCK
  8
LAYER1
  2
Group12
 70
     0
 10
0
 20
0
 30
0
  0
LINE
  8
LAYER1
  6
CONTINUOUS
 62
     7
 10
1.1389
 20
8.0673
 30
0
 11
1.1111
 21
8.1089
 31
0
  0
POLYLINE
  8
LAYER1
  6
CONTINUOUS
 62
     7
 66
     1
 70
     0
 40
0.001
 41
0.001
  0
VERTEX
  8
LAYER1
 10
1.3889
 20
8.5812
 30
0
 70
     0
  0
VERTEX
  8
LAYER1
 10
1.3889
 20
8.5812
 30
0
 70
     0
  0
VERTEX
  8
LAYER1
 10
1.3889
 20
8.5951
 30
0
 70
     0
  0
VERTEX
  8
LAYER1
 10
1.4028
 20
8.6089
 30
0
 70
     0
  0
VERTEX
  8
LAYER1
 10
1.4028
 20
8.6089
 30
0
 70
     0
  0
VERTEX
  8
LAYER1
 10
1.4028
 20
8.6089
 30
0
 70
     0
  0
VERTEX
  8
LAYER1
 10
1.4306
 20
8.6228
 30
0
 70
     0
  0
VERTEX
  8
LAYER1
 10
1.4306
 20
8.6228
 30
0
 70
     0
  0
SEQEND
  0
POLYLINE
  8
LAYER1
  6
CONTINUOUS
 62
     7
 66
     1
 70
     0
 40
0.001
 41
0.001
  0
VERTEX
  8
LAYER1
 10
1.4306
 20
8.1089
 30
0
 70
     0
  0
VERTEX
  8
LAYER1
 10
1.4306
 20
8.1089
 30
0
 70
     0
  0
VERTEX
  8
LAYER1
 10
1.4167
 20
8.1089
 30
0
 70
     0
  0
VERTEX
  8
LAYER1
 10
1.4028
 20
8.1089
 30
0
 70
     0
  0
VERTEX
  8
LAYER1
 10
1.4028
 20
8.1089
 30
0
 70
     0
  0
VERTEX
  8
LAYER1
 10
1.3889
 20
8.1367
 30
0
 70
     0
  0
VERTEX
  8
LAYER1
 10
1.3889
 20
8.1506
 30
0
 70
     0
  0
SEQEND
  0
LINE
  8
LAYER1
  6
CONTINUOUS
 62
     7
 10
1.3889
 20
8.5812
 30
0
 11
1.3889
 21
8.1506
 31
0
  0
LINE
  8
LAYER1
  6
CONTINUOUS
 62
     7
 10
1.375
 20
8.6506
 30
0
 11
1.375
 21
8.0673
 31
0
  0
LINE
  8
LAYER1
  6
CONTINUOUS
 62
     7
 10
1.5417
 20
8.0673
 30
0
 11
1.375
 21
8.0673
 31
0
  0
LINE
  8
LAYER1
  6
CONTINUOUS
 62
     7
 10
1.5417
 20
8.6506
 30
0
 11
1.375
 21
8.6506
 31
0
  0
POLYLINE
  8
LAYER1
  6
CONTINUOUS
 62
     7
 66
     1
 70
     0
 40
0.001
 41
0.001
  0
VERTEX
  8
LAYER1
 10
1.5417
 20
8.6506
 30
0
 70
     0
  0
VERTEX
  8
LAYER1
 10
1.5417
 20
8.6506
 30
0
 70
     0
  0
VERTEX
  8
LAYER1
 10
1.5417
 20
8.6367
 30
0
 70
     0
  0
VERTEX
  8
LAYER1
 10
1.5417
 20
8.6367
 30
0
 70
     0
  0
SEQEND
  0
LINE
  8
LAYER1
  6
CONTINUOUS
 62
     7
 10
1.4306
 20
8.6228
 30
0
 11
1.5417
 21
8.6367
 31
0
  0
POLYLINE
  8
LAYER1
  6
CONTINUOUS
 62
     7
 66
     1
 70
     0
 40
0.001
 41
0.001
  0
VERTEX
  8
LAYER1
 10
1.5417
 20
8.0951
 30
0
 70
     0
  0
VERTEX
  8
LAYER1
 10
1.5417
 20
8.0951
 30
0
 70
     0
  0
VERTEX
  8
LAYER1
 10
1.5417
 20
8.0812
 30
0
 70
     0
  0
SEQEND
  0
LINE
  8
LAYER1
  6
CONTINUOUS
 62
     7
 10
1.5417
 20
8.0812
 30
0
 11
1.5417
 21
8.0673
 31
0
  0
ENDBLK
  8
LAYER1
  0
BLOCK
  8
LAYER1
  2
Group13
 70
     0
 10
0
 20
0
 30
0
  0
LINE
  8
LAYER1
  6
CONTINUOUS
 62
     7
 10
1.4306
 20
8.1089
 30
0
 11
1.5417
 21
8.0951
 31
0
  0
LINE
  8
LAYER1
  6
CONTINUOUS
 62
     7
 10
1.5
 20
8.0951
 30
0
 11
1.4722
 21
8.0673
 31
0
  0
LINE
  8
LAYER1
  6
CONTINUOUS
 62
     7
 10
1.3889
 20
8.1228
 30
0
 11
1.375
 21
8.1089
 31
0
  0
LINE
  8
LAYER1
  6
CONTINUOUS
 62
     7
 10
1.3889
 20
8.2478
 30
0
 11
1.375
 21
8.2339
 31
0
  0
LINE
  8
LAYER1
  6
CONTINUOUS
 62
     7
 10
1.3889
 20
8.3867
 30
0
 11
1.375
 21
8.3728
 31
0
  0
LINE
  8
LAYER1
  6
CONTINUOUS
 62
     7
 10
1.5278
 20
8.6506
 30
0
 11
1.5
 21
8.6367
 31
0
  0
LINE
  8
LAYER1
  6
CONTINUOUS
 62
     7
 10
1.3889
 20
8.5256
 30
0
 11
1.375
 21
8.4978
 31
0
  0
LINE
  8
LAYER1
  6
CONTINUOUS
 62
     7
 10
1.3889
 20
8.6506
 30
0
 11
1.375
 21
8.6367
 31
0
  0
LINE
  8
LAYER1
  6
CONTINUOUS
 62
     7
 10
1.5417
 20
8.0951
 30
0
 11
1.5139
 21
8.0673
 31
0
  0
LINE
  8
LAYER1
  6
CONTINUOUS
 62
     7
 10
1.4167
 20
8.1089
 30
0
 11
1.3889
 21
8.0673
 31
0
  0
LINE
  8
LAYER1
  6
CONTINUOUS
 62
     7
 10
1.3889
 20
8.2062
 30
0
 11
1.375
 21
8.1923
 31
0
  0
LINE
  8
LAYER1
  6
CONTINUOUS
 62
     7
 10
1.3889
 20
8.3451
 30
0
 11
1.375
 21
8.3312
 31
0
  0
LINE
  8
LAYER1
  6
CONTINUOUS
 62
     7
 10
1.3889
 20
8.4701
 30
0
 11
1.375
 21
8.4562
 31
0
  0
ENDBLK
  8
LAYER1
  0
BLOCK
  8
LAYER1
  2
Group14
 70
     0
 10
0
 20
0
 30
0
  0
INSERT
  8
LAYER1
  2
Group12
 10
0
 20
0
 30
0
  0
INSERT
  8
LAYER1
  2
Group13
 10
0
 20
0
 30
0
  0
ENDBLK
  8
LAYER1
  0
BLOCK
  8
LAYER1
  2
Group15
 70
     0
 10
0
 20
0
 30
0
  0
INSERT
  8
LAYER1
  2
Group11
 10
0
 20
0
 30
0
  0
INSERT
  8
LAYER1
  2
Group14
 10
0
 20
0
 30
0
  0
ENDBLK
  8
LAYER1
  0
BLOCK
  8
LAYER1
  2
Group16
 70
     0
 10
0
 20
0
 30
0
  0
LINE
  8
LAYER1
  6
CONTINUOUS
 62
     7
 10
1.4306
 20
8.6506
 30
0
 11
1.375
 21
8.5951
 31
0
  0
POLYLINE
  8
LAYER1
  6
CONTINUOUS
 62
     7
 66
     1
 70
     0
 40
0.001
 41
0.001
  0
VERTEX
  8
LAYER1
 10
1.4306
 20
7.0951
 30
0
 70
     0
  0
VERTEX
  8
LAYER1
 10
1.4306
 20
7.0951
 30
0
 70
     0
  0
VERTEX
  8
LAYER1
 10
1.4306
 20
7.1089
 30
0
 70
     0
  0
VERTEX
  8
LAYER1
 10
1.4444
 20
7.1367
 30
0
 70
     0
  0
VERTEX
  8
LAYER1
 10
1.4444
 20
7.1367
 30
0
 70
     0
  0
VERTEX
  8
LAYER1
 10
1.4444
 20
7.1367
 30
0
 70
     0
  0
VERTEX
  8
LAYER1
 10
1.4722
 20
7.1506
 30
0
 70
     0
  0
VERTEX
  8
LAYER1
 10
1.4722
 20
7.1506
 30
0
 70
     0
  0
SEQEND
  0
POLYLINE
  8
LAYER1
  6
CONTINUOUS
 62
     7
 66
     1
 70
     0
 40
0.001
 41
0.001
  0
VERTEX
  8
LAYER1
 10
1.4722
 20
6.5395
 30
0
 70
     0
  0
VERTEX
  8
LAYER1
 10
1.4722
 20
6.5395
 30
0
 70
     0
  0
VERTEX
  8
LAYER1
 10
1.4583
 20
6.5395
 30
0
 70
     0
  0
VERTEX
  8
LAYER1
 10
1.4444
 20
6.5534
 30
0
 70
     0
  0
VERTEX
  8
LAYER1
 10
1.4444
 20
6.5534
 30
0
 70
     0
  0
VERTEX
  8
LAYER1
 10
1.4306
 20
6.5673
 30
0
 70
     0
  0
VERTEX
  8
LAYER1
 10
1.4306
 20
6.5812
 30
0
 70
     0
  0
SEQEND
  0
LINE
  8
LAYER1
  6
CONTINUOUS
 62
     7
 10
1.4306
 20
7.0951
 30
0
 11
1.4306
 21
6.5812
 31
0
  0
POLYLINE
  8
LAYER1
  6
CONTINUOUS
 62
     7
 66
     1
 70
     0
 40
0.001
 41
0.001
  0
VERTEX
  8
LAYER1
 10
1.4028
 20
7.1784
 30
0
 70
     0
  0
VERTEX
  8
LAYER1
 10
1.4028
 20
6.5117
 30
0
 70
     0
  0
VERTEX
  8
LAYER1
 10
1.5972
 20
6.5117
 30
0
 70
     0
  0
SEQEND
  0
LINE
  8
LAYER1
  6
CONTINUOUS
 62
     7
 10
1.4028
 20
7.1784
 30
0
 11
1.5972
 21
7.1784
 31
0
  0
POLYLINE
  8
LAYER1
  6
CONTINUOUS
 62
     7
 66
     1
 70
     0
 40
0.001
 41
0.001
  0
VERTEX
  8
LAYER1
 10
1.5972
 20
7.1645
 30
0
 70
     0
  0
VERTEX
  8
LAYER1
 10
1.5972
 20
7.1645
 30
0
 70
     0
  0
VERTEX
  8
LAYER1
 10
1.5972
 20
7.1645
 30
0
 70
     0
  0
VERTEX
  8
LAYER1
 10
1.5972
 20
7.1506
 30
0
 70
     0
  0
VERTEX
  8
LAYER1
 10
1.5972
 20
7.1506
 30
0
 70
     0
  0
VERTEX
  8
LAYER1
 10
1.5833
 20
7.1506
 30
0
 70
     0
  0
SEQEND
  0
LINE
  8
LAYER1
  6
CONTINUOUS
 62
     7
 10
1.5972
 20
7.1784
 30
0
 11
1.5972
 21
7.1645
 31
0
  0
LINE
  8
LAYER1
  6
CONTINUOUS
 62
     7
 10
1.4722
 20
7.1506
 30
0
 11
1.5833
 21
7.1506
 31
0
  0
POLYLINE
  8
LAYER1
  6
CONTINUOUS
 62
     7
 66
     1
 70
     0
 40
0.001
 41
0.001
  0
VERTEX
  8
LAYER1
 10
1.5833
 20
6.5395
 30
0
 70
     0
  0
VERTEX
  8
LAYER1
 10
1.5972
 20
6.5395
 30
0
 70
     0
  0
VERTEX
  8
LAYER1
 10
1.5972
 20
6.5256
 30
0
 70
     0
  0
VERTEX
  8
LAYER1
 10
1.5972
 20
6.5256
 30
0
 70
     0
  0
VERTEX
  8
LAYER1
 10
1.5972
 20
6.5256
 30
0
 70
     0
  0
SEQEND
  0
LINE
  8
LAYER1
  6
CONTINUOUS
 62
     7
 10
1.5972
 20
6.5256
 30
0
 11
1.5972
 21
6.5117
 31
0
  0
ENDBLK
  8
LAYER1
  0
BLOCK
  8
LAYER1
  2
Group17
 70
     0
 10
0
 20
0
 30
0
  0
LINE
  8
LAYER1
  6
CONTINUOUS
 62
     7
 10
1.4722
 20
6.5395
 30
0
 11
1.5833
 21
6.5395
 31
0
  0
LINE
  8
LAYER1
  6
CONTINUOUS
 62
     7
 10
1.4861
 20
6.5395
 30
0
 11
1.4583
 21
6.5117
 31
0
  0
LINE
  8
LAYER1
  6
CONTINUOUS
 62
     7
 10
1.4306
 20
6.6089
 30
0
 11
1.4028
 21
6.5951
 31
0
  0
LINE
  8
LAYER1
  6
CONTINUOUS
 62
     7
 10
1.4306
 20
6.7478
 30
0
 11
1.4028
 21
6.7201
 31
0
  0
LINE
  8
LAYER1
  6
CONTINUOUS
 62
     7
 10
1.4306
 20
6.8867
 30
0
 11
1.4028
 21
6.8589
 31
0
  0
LINE
  8
LAYER1
  6
CONTINUOUS
 62
     7
 10
1.5972
 20
7.1784
 30
0
 11
1.5694
 21
7.1506
 31
0
  0
LINE
  8
LAYER1
  6
CONTINUOUS
 62
     7
 10
1.4306
 20
7.0117
 30
0
 11
1.4028
 21
6.9978
 31
0
  0
LINE
  8
LAYER1
  6
CONTINUOUS
 62
     7
 10
1.4583
 20
7.1784
 30
0
 11
1.4028
 21
7.1228
 31
0
  0
LINE
  8
LAYER1
  6
CONTINUOUS
 62
     7
 10
1.5278
 20
6.5395
 30
0
 11
1.5
 21
6.5117
 31
0
  0
LINE
  8
LAYER1
  6
CONTINUOUS
 62
     7
 10
1.4306
 20
6.5673
 30
0
 11
1.4028
 21
6.5534
 31
0
  0
LINE
  8
LAYER1
  6
CONTINUOUS
 62
     7
 10
1.4306
 20
6.7062
 30
0
 11
1.4028
 21
6.6784
 31
0
  0
LINE
  8
LAYER1
  6
CONTINUOUS
 62
     7
 10
1.4306
 20
6.8312
 30
0
 11
1.4028
 21
6.8173
 31
0
  0
LINE
  8
LAYER1
  6
CONTINUOUS
 62
     7
 10
1.4306
 20
6.9701
 30
0
 11
1.4028
 21
6.9423
 31
0
  0
LINE
  8
LAYER1
  6
CONTINUOUS
 62
     7
 10
1.5
 20
7.1784
 30
0
 11
1.4722
 21
7.1506
 31
0
  0
ENDBLK
  8
LAYER1
  0
BLOCK
  8
LAYER1
  2
Group18
 70
     0
 10
0
 20
0
 30
0
  0
INSERT
  8
LAYER1
  2
Group16
 10
0
 20
0
 30
0
  0
INSERT
  8
LAYER1
  2
Group17
 10
0
 20
0
 30
0
  0
ENDBLK
  8
LAYER1
  0
BLOCK
  8
LAYER1
  2
Group19
 70
     0
 10
0
 20
0
 30
0
  0
LINE
  8
LAYER1
  6
CONTINUOUS
 62
     7
 10
1.4306
 20
7.0951
 30
0
 11
1.4028
 21
7.0812
 31
0
  0
LINE
  8
LAYER1
  6
CONTINUOUS
 62
     7
 10
1.4028
 20
6.5117
 30
0
 11
1.1111
 21
6.5117
 31
0
  0
LINE
  8
LAYER1
  6
CONTINUOUS
 62
     7
 10
1.4028
 20
6.5117
 30
0
 11
1.4028
 21
6.7617
 31
0
  0
POLYLINE
  8
LAYER1
  6
CONTINUOUS
 62
     7
 66
     1
 70
     0
 40
0.001
 41
0.001
  0
VERTEX
  8
LAYER1
 10
1.1111
 20
6.5117
 30
0
 70
     0
  0
VERTEX
  8
LAYER1
 10
1.1111
 20
6.5117
 30
0
 70
     0
  0
VERTEX
  8
LAYER1
 10
1.1111
 20
6.5117
 30
0
 70
     0
  0
VERTEX
  8
LAYER1
 10
1.125
 20
6.5395
 30
0
 70
     0
  0
VERTEX
  8
LAYER1
 10
1.125
 20
6.5395
 30
0
 70
     0
  0
VERTEX
  8
LAYER1
 10
1.1389
 20
6.5395
 30
0
 70
     0
  0
VERTEX
  8
LAYER1
 10
1.1528
 20
6.5395
 30
0
 70
     0
  0
VERTEX
  8
LAYER1
 10
1.1528
 20
6.5395
 30
0
 70
     0
  0
SEQEND
  0
POLYLINE
  8
LAYER1
  6
CONTINUOUS
 62
     7
 66
     1
 70
     0
 40
0.001
 41
0.001
  0
VERTEX
  8
LAYER1
 10
1.375
 20
6.7339
 30
0
 70
     0
  0
VERTEX
  8
LAYER1
 10
1.375
 20
6.7339
 30
0
 70
     0
  0
VERTEX
  8
LAYER1
 10
1.375
 20
6.7339
 30
0
 70
     0
  0
VERTEX
  8
LAYER1
 10
1.3889
 20
6.7478
 30
0
 70
     0
  0
VERTEX
  8
LAYER1
 10
1.3889
 20
6.7478
 30
0
 70
     0
  0
VERTEX
  8
LAYER1
 10
1.3889
 20
6.7478
 30
0
 70
     0
  0
VERTEX
  8
LAYER1
 10
1.4028
 20
6.7617
 30
0
 70
     0
  0
VERTEX
  8
LAYER1
 10
1.4028
 20
6.7617
 30
0
 70
     0
  0
SEQEND
  0
POLYLINE
  8
LAYER1
  6
CONTINUOUS
 62
     7
 66
     1
 70
     0
 40
0.001
 41
0.001
  0
VERTEX
  8
LAYER1
 10
1.375
 20
6.5812
 30
0
 70
     0
  0
VERTEX
  8
LAYER1
 10
1.375
 20
6.5812
 30
0
 70
     0
  0
VERTEX
  8
LAYER1
 10
1.375
 20
6.5673
 30
0
 70
     0
  0
VERTEX
  8
LAYER1
 10
1.375
 20
6.5673
 30
0
 70
     0
  0
VERTEX
  8
LAYER1
 10
1.3611
 20
6.5534
 30
0
 70
     0
  0
VERTEX
  8
LAYER1
 10
1.3611
 20
6.5395
 30
0
 70
     0
  0
VERTEX
  8
LAYER1
 10
1.3472
 20
6.5395
 30
0
 70
     0
  0
VERTEX
  8
LAYER1
 10
1.3333
 20
6.5395
 30
0
 70
     0
  0
SEQEND
  0
LINE
  8
LAYER1
  6
CONTINUOUS
 62
     7
 10
1.3333
 20
6.5395
 30
0
 11
1.1528
 21
6.5395
 31
0
  0
ENDBLK
  8
LAYER1
  0
BLOCK
  8
LAYER1
  2
Group20
 70
     0
 10
0
 20
0
 30
0
  0
LINE
  8
LAYER1
  6
CONTINUOUS
 62
     7
 10
1.375
 20
6.5812
 30
0
 11
1.375
 21
6.7339
 31
0
  0
LINE
  8
LAYER1
  6
CONTINUOUS
 62
     7
 10
1.4028
 20
6.6228
 30
0
 11
1.375
 21
6.6645
 31
0
  0
LINE
  8
LAYER1
  6
CONTINUOUS
 62
     7
 10
1.3889
 20
6.5117
 30
0
 11
1.3611
 21
6.5395
 31
0
  0
LINE
  8
LAYER1
  6
CONTINUOUS
 62
     7
 10
1.2639
 20
6.5117
 30
0
 11
1.2222
 21
6.5395
 31
0
  0
LINE
  8
LAYER1
  6
CONTINUOUS
 62
     7
 10
1.125
 20
6.5117
 30
0
 11
1.1111
 21
6.5256
 31
0
  0
LINE
  8
LAYER1
  6
CONTINUOUS
 62
     7
 10
1.4028
 20
6.6784
 30
0
 11
1.375
 21
6.7062
 31
0
  0
LINE
  8
LAYER1
  6
CONTINUOUS
 62
     7
 10
1.4028
 20
6.5395
 30
0
 11
1.375
 21
6.5673
 31
0
  0
LINE
  8
LAYER1
  6
CONTINUOUS
 62
     7
 10
1.3056
 20
6.5117
 30
0
 11
1.2778
 21
6.5395
 31
0
  0
ENDBLK
  8
LAYER1
  0
BLOCK
  8
LAYER1
  2
Group21
 70
     0
 10
0
 20
0
 30
0
  0
INSERT
  8
LAYER1
  2
Group19
 10
0
 20
0
 30
0
  0
INSERT
  8
LAYER1
  2
Group20
 10
0
 20
0
 30
0
  0
ENDBLK
  8
LAYER1
  0
BLOCK
  8
LAYER1
  2
Group22
 70
     0
 10
0
 20
0
 30
0
  0
INSERT
  8
LAYER1
  2
Group18
 10
0
 20
0
 30
0
  0
INSERT
  8
LAYER1
  2
Group21
 10
0
 20
0
 30
0
  0
ENDBLK
  8
LAYER1
  0
BLOCK
  8
LAYER1
  2
Group23
 70
     0
 10
0
 20
0
 30
0
  0
LINE
  8
LAYER1
  6
CONTINUOUS
 62
     7
 10
1.1667
 20
6.5117
 30
0
 11
1.1389
 21
6.5395
 31
0
  0
POLYLINE
  8
LAYER1
  6
CONTINUOUS
 62
     7
 66
     1
 70
     0
 40
0.001
 41
0.001
  0
VERTEX
  8
LAYER1
 10
1.3611
 20
5.4145
 30
0
 70
     0
  0
VERTEX
  8
LAYER1
 10
1.3611
 20
5.4145
 30
0
 70
     0
  0
VERTEX
  8
LAYER1
 10
1.3611
 20
5.4145
 30
0
 70
     0
  0
VERTEX
  8
LAYER1
 10
1.375
 20
5.4423
 30
0
 70
     0
  0
VERTEX
  8
LAYER1
 10
1.375
 20
5.4423
 30
0
 70
     0
  0
VERTEX
  8
LAYER1
 10
1.375
 20
5.4423
 30
0
 70
     0
  0
VERTEX
  8
LAYER1
 10
1.4028
 20
5.4562
 30
0
 70
     0
  0
VERTEX
  8
LAYER1
 10
1.4028
 20
5.4562
 30
0
 70
     0
  0
SEQEND
  0
POLYLINE
  8
LAYER1
  6
CONTINUOUS
 62
     7
 66
     1
 70
     0
 40
0.001
 41
0.001
  0
VERTEX
  8
LAYER1
 10
1.4028
 20
4.7756
 30
0
 70
     0
  0
VERTEX
  8
LAYER1
 10
1.4028
 20
4.7756
 30
0
 70
     0
  0
VERTEX
  8
LAYER1
 10
1.3889
 20
4.7756
 30
0
 70
     0
  0
VERTEX
  8
LAYER1
 10
1.375
 20
4.7895
 30
0
 70
     0
  0
VERTEX
  8
LAYER1
 10
1.375
 20
4.7895
 30
0
 70
     0
  0
VERTEX
  8
LAYER1
 10
1.3611
 20
4.8034
 30
0
 70
     0
  0
VERTEX
  8
LAYER1
 10
1.3611
 20
4.8173
 30
0
 70
     0
  0
SEQEND
  0
LINE
  8
LAYER1
  6
CONTINUOUS
 62
     7
 10
1.3611
 20
5.4145
 30
0
 11
1.3611
 21
4.8173
 31
0
  0
LINE
  8
LAYER1
  6
CONTINUOUS
 62
     7
 10
1.3472
 20
5.4839
 30
0
 11
1.3472
 21
4.7339
 31
0
  0
LINE
  8
LAYER1
  6
CONTINUOUS
 62
     7
 10
1.3472
 20
5.4839
 30
0
 11
1.5417
 21
5.4839
 31
0
  0
POLYLINE
  8
LAYER1
  6
CONTINUOUS
 62
     7
 66
     1
 70
     0
 40
0.001
 41
0.001
  0
VERTEX
  8
LAYER1
 10
1.5417
 20
5.4701
 30
0
 70
     0
  0
VERTEX
  8
LAYER1
 10
1.5417
 20
5.4701
 30
0
 70
     0
  0
VERTEX
  8
LAYER1
 10
1.5417
 20
5.4701
 30
0
 70
     0
  0
VERTEX
  8
LAYER1
 10
1.5417
 20
5.4562
 30
0
 70
     0
  0
SEQEND
  0
LINE
  8
LAYER1
  6
CONTINUOUS
 62
     7
 10
1.5417
 20
5.4839
 30
0
 11
1.5417
 21
5.4701
 31
0
  0
LINE
  8
LAYER1
  6
CONTINUOUS
 62
     7
 10
1.4028
 20
5.4562
 30
0
 11
1.5417
 21
5.4562
 31
0
  0
POLYLINE
  8
LAYER1
  6
CONTINUOUS
 62
     7
 66
     1
 70
     0
 40
0.001
 41
0.001
  0
VERTEX
  8
LAYER1
 10
1.5417
 20
4.7617
 30
0
 70
     0
  0
VERTEX
  8
LAYER1
 10
1.5417
 20
4.7617
 30
0
 70
     0
  0
VERTEX
  8
LAYER1
 10
1.5417
 20
4.7478
 30
0
 70
     0
  0
SEQEND
  0
LINE
  8
LAYER1
  6
CONTINUOUS
 62
     7
 10
1.4028
 20
4.7756
 30
0
 11
1.5417
 21
4.7617
 31
0
  0
LINE
  8
LAYER1
  6
CONTINUOUS
 62
     7
 10
1.5417
 20
4.7478
 30
0
 11
1.5417
 21
4.7339
 31
0
  0
ENDBLK
  8
LAYER1
  0
BLOCK
  8
LAYER1
  2
Group24
 70
     0
 10
0
 20
0
 30
0
  0
LINE
  8
LAYER1
  6
CONTINUOUS
 62
     7
 10
1.3472
 20
4.7339
 30
0
 11
1.5417
 21
4.7339
 31
0
  0
LINE
  8
LAYER1
  6
CONTINUOUS
 62
     7
 10
1.5
 20
4.7617
 30
0
 11
1.4583
 21
4.7339
 31
0
  0
LINE
  8
LAYER1
  6
CONTINUOUS
 62
     7
 10
1.375
 20
4.7895
 30
0
 11
1.3472
 21
4.7478
 31
0
  0
LINE
  8
LAYER1
  6
CONTINUOUS
 62
     7
 10
1.3611
 20
4.9006
 30
0
 11
1.3472
 21
4.8867
 31
0
  0
LINE
  8
LAYER1
  6
CONTINUOUS
 62
     7
 10
1.3611
 20
5.0395
 30
0
 11
1.3472
 21
5.0117
 31
0
  0
LINE
  8
LAYER1
  6
CONTINUOUS
 62
     7
 10
1.3611
 20
5.1645
 30
0
 11
1.3472
 21
5.1506
 31
0
  0
LINE
  8
LAYER1
  6
CONTINUOUS
 62
     7
 10
1.5417
 20
5.4839
 30
0
 11
1.5278
 21
5.4562
 31
0
  0
LINE
  8
LAYER1
  6
CONTINUOUS
 62
     7
 10
1.3611
 20
5.3034
 30
0
 11
1.3472
 21
5.2756
 31
0
  0
LINE
  8
LAYER1
  6
CONTINUOUS
 62
     7
 10
1.4167
 20
5.4839
 30
0
 11
1.3472
 21
5.4145
 31
0
  0
LINE
  8
LAYER1
  6
CONTINUOUS
 62
     7
 10
1.5417
 20
4.7617
 30
0
 11
1.5139
 21
4.7339
 31
0
  0
LINE
  8
LAYER1
  6
CONTINUOUS
 62
     7
 10
1.4028
 20
4.7756
 30
0
 11
1.375
 21
4.7339
 31
0
  0
LINE
  8
LAYER1
  6
CONTINUOUS
 62
     7
 10
1.3611
 20
4.8589
 30
0
 11
1.3472
 21
4.8451
 31
0
  0
LINE
  8
LAYER1
  6
CONTINUOUS
 62
     7
 10
1.3611
 20
4.9978
 30
0
 11
1.3472
 21
4.9701
 31
0
  0
LINE
  8
LAYER1
  6
CONTINUOUS
 62
     7
 10
1.3611
 20
5.1228
 30
0
 11
1.3472
 21
5.1089
 31
0
  0
LINE
  8
LAYER1
  6
CONTINUOUS
 62
     7
 10
1.3611
 20
5.2617
 30
0
 11
1.3472
 21
5.2339
 31
0
  0
LINE
  8
LAYER1
  6
CONTINUOUS
 62
     7
 10
1.4583
 20
5.4839
 30
0
 11
1.4306
 21
5.4562
 31
0
  0
ENDBLK
  8
LAYER1
  0
BLOCK
  8
LAYER1
  2
Group25
 70
     0
 10
0
 20
0
 30
0
  0
INSERT
  8
LAYER1
  2
Group23
 10
0
 20
0
 30
0
  0
INSERT
  8
LAYER1
  2
Group24
 10
0
 20
0
 30
0
  0
ENDBLK
  8
LAYER1
  0
BLOCK
  8
LAYER1
  2
Group26
 70
     0
 10
0
 20
0
 30
0
  0
LINE
  8
LAYER1
  6
CONTINUOUS
 62
     7
 10
1.3611
 20
5.3867
 30
0
 11
1.3472
 21
5.3728
 31
0
  0
LINE
  8
LAYER1
  6
CONTINUOUS
 62
     7
 10
1.3472
 20
4.7339
 30
0
 11
1.0556
 21
4.7339
 31
0
  0
LINE
  8
LAYER1
  6
CONTINUOUS
 62
     7
 10
1.3472
 20
4.7339
 30
0
 11
1.3472
 21
4.9839
 31
0
  0
POLYLINE
  8
LAYER1
  6
CONTINUOUS
 62
     7
 66
     1
 70
     0
 40
0.001
 41
0.001
  0
VERTEX
  8
LAYER1
 10
1.0556
 20
4.7339
 30
0
 70
     0
  0
VERTEX
  8
LAYER1
 10
1.0556
 20
4.7339
 30
0
 70
     0
  0
VERTEX
  8
LAYER1
 10
1.0556
 20
4.7339
 30
0
 70
     0
  0
VERTEX
  8
LAYER1
 10
1.0556
 20
4.7478
 30
0
 70
     0
  0
VERTEX
  8
LAYER1
 10
1.0556
 20
4.7617
 30
0
 70
     0
  0
VERTEX
  8
LAYER1
 10
1.0556
 20
4.7617
 30
0
 70
     0
  0
VERTEX
  8
LAYER1
 10
1.0833
 20
4.7756
 30
0
 70
     0
  0
VERTEX
  8
LAYER1
 10
1.0833
 20
4.7756
 30
0
 70
     0
  0
SEQEND
  0
POLYLINE
  8
LAYER1
  6
CONTINUOUS
 62
     7
 66
     1
 70
     0
 40
0.001
 41
0.001
  0
VERTEX
  8
LAYER1
 10
1.3194
 20
4.9562
 30
0
 70
     0
  0
VERTEX
  8
LAYER1
 10
1.3194
 20
4.9562
 30
0
 70
     0
  0
VERTEX
  8
LAYER1
 10
1.3194
 20
4.9562
 30
0
 70
     0
  0
VERTEX
  8
LAYER1
 10
1.3194
 20
4.9701
 30
0
 70
     0
  0
VERTEX
  8
LAYER1
 10
1.3194
 20
4.9839
 30
0
 70
     0
  0
VERTEX
  8
LAYER1
 10
1.3333
 20
4.9839
 30
0
 70
     0
  0
VERTEX
  8
LAYER1
 10
1.3472
 20
4.9839
 30
0
 70
     0
  0
VERTEX
  8
LAYER1
 10
1.3472
 20
4.9839
 30
0
 70
     0
  0
SEQEND
  0
POLYLINE
  8
LAYER1
  6
CONTINUOUS
 62
     7
 66
     1
 70
     0
 40
0.001
 41
0.001
  0
VERTEX
  8
LAYER1
 10
1.3194
 20
4.8034
 30
0
 70
     0
  0
VERTEX
  8
LAYER1
 10
1.3194
 20
4.8034
 30
0
 70
     0
  0
VERTEX
  8
LAYER1
 10
1.3194
 20
4.7895
 30
0
 70
     0
  0
VERTEX
  8
LAYER1
 10
1.3194
 20
4.7895
 30
0
 70
     0
  0
VERTEX
  8
LAYER1
 10
1.3056
 20
4.7756
 30
0
 70
     0
  0
VERTEX
  8
LAYER1
 10
1.3056
 20
4.7756
 30
0
 70
     0
  0
VERTEX
  8
LAYER1
 10
1.2917
 20
4.7756
 30
0
 70
     0
  0
VERTEX
  8
LAYER1
 10
1.2778
 20
4.7756
 30
0
 70
     0
  0
SEQEND
  0
LINE
  8
LAYER1
  6
CONTINUOUS
 62
     7
 10
1.2778
 20
4.7756
 30
0
 11
1.0833
 21
4.7756
 31
0
  0
ENDBLK
  8
LAYER1
  0
BLOCK
  8
LAYER1
  2
Group27
 70
     0
 10
0
 20
0
 30
0
  0
LINE
  8
LAYER1
  6
CONTINUOUS
 62
     7
 10
1.3194
 20
4.8034
 30
0
 11
1.3194
 21
4.9562
 31
0
  0
LINE
  8
LAYER1
  6
CONTINUOUS
 62
     7
 10
1.3472
 20
4.8589
 30
0
 11
1.3194
 21
4.8867
 31
0
  0
LINE
  8
LAYER1
  6
CONTINUOUS
 62
     7
 10
1.3333
 20
4.7339
 30
0
 11
1.2917
 21
4.7756
 31
0
  0
LINE
  8
LAYER1
  6
CONTINUOUS
 62
     7
 10
1.1944
 20
4.7339
 30
0
 11
1.1667
 21
4.7756
 31
0
  0
LINE
  8
LAYER1
  6
CONTINUOUS
 62
     7
 10
1.0694
 20
4.7339
 30
0
 11
1.0556
 21
4.7478
 31
0
  0
LINE
  8
LAYER1
  6
CONTINUOUS
 62
     7
 10
1.3472
 20
4.9006
 30
0
 11
1.3194
 21
4.9284
 31
0
  0
LINE
  8
LAYER1
  6
CONTINUOUS
 62
     7
 10
1.3472
 20
4.7617
 30
0
 11
1.3194
 21
4.8034
 31
0
  0
LINE
  8
LAYER1
  6
CONTINUOUS
 62
     7
 10
1.2361
 20
4.7339
 30
0
 11
1.2083
 21
4.7756
 31
0
  0
ENDBLK
  8
LAYER1
  0
BLOCK
  8
LAYER1
  2
Group28
 70
     0
 10
0
 20
0
 30
0
  0
INSERT
  8
LAYER1
  2
Group26
 10
0
 20
0
 30
0
  0
INSERT
  8
LAYER1
  2
Group27
 10
0
 20
0
 30
0
  0
ENDBLK
  8
LAYER1
  0
BLOCK
  8
LAYER1
  2
Group29
 70
     0
 10
0
 20
0
 30
0
  0
INSERT
  8
LAYER1
  2
Group25
 10
0
 20
0
 30
0
  0
INSERT
  8
LAYER1
  2
Group28
 10
0
 20
0
 30
0
  0
ENDBLK
  8
LAYER1
  0
BLOCK
  8
LAYER1
  2
Group30
 70
     0
 10
0
 20
0
 30
0
  0
LINE
  8
LAYER1
  6
CONTINUOUS
 62
     7
 10
1.1111
 20
4.7339
 30
0
 11
1.0833
 21
4.7617
 31
0
  0
POLYLINE
  8
LAYER1
  6
CONTINUOUS
 62
     7
 66
     1
 70
     0
 40
0.001
 41
0.001
  0
VERTEX
  8
LAYER1
 10
1.375
 20
2.8034
 30
0
 70
     0
  0
VERTEX
  8
LAYER1
 10
1.375
 20
2.8034
 30
0
 70
     0
  0
VERTEX
  8
LAYER1
 10
1.3611
 20
2.8034
 30
0
 70
     0
  0
VERTEX
  8
LAYER1
 10
1.3472
 20
2.8173
 30
0
 70
     0
  0
VERTEX
  8
LAYER1
 10
1.3472
 20
2.8173
 30
0
 70
     0
  0
VERTEX
  8
LAYER1
 10
1.3333
 20
2.8312
 30
0
 70
     0
  0
VERTEX
  8
LAYER1
 10
1.3333
 20
2.8451
 30
0
 70
     0
  0
SEQEND
  0
POLYLINE
  8
LAYER1
  6
CONTINUOUS
 62
     7
 66
     1
 70
     0
 40
0.001
 41
0.001
  0
VERTEX
  8
LAYER1
 10
1.3333
 20
3.5256
 30
0
 70
     0
  0
VERTEX
  8
LAYER1
 10
1.3333
 20
3.5256
 30
0
 70
     0
  0
VERTEX
  8
LAYER1
 10
1.3333
 20
3.5256
 30
0
 70
     0
  0
VERTEX
  8
LAYER1
 10
1.3472
 20
3.5534
 30
0
 70
     0
  0
VERTEX
  8
LAYER1
 10
1.3472
 20
3.5534
 30
0
 70
     0
  0
VERTEX
  8
LAYER1
 10
1.3472
 20
3.5534
 30
0
 70
     0
  0
VERTEX
  8
LAYER1
 10
1.375
 20
3.5673
 30
0
 70
     0
  0
VERTEX
  8
LAYER1
 10
1.375
 20
3.5673
 30
0
 70
     0
  0
SEQEND
  0
LINE
  8
LAYER1
  6
CONTINUOUS
 62
     7
 10
1.3333
 20
2.8451
 30
0
 11
1.3333
 21
3.5256
 31
0
  0
LINE
  8
LAYER1
  6
CONTINUOUS
 62
     7
 10
1.3056
 20
2.7617
 30
0
 11
1.3056
 21
3.5951
 31
0
  0
POLYLINE
  8
LAYER1
  6
CONTINUOUS
 62
     7
 66
     1
 70
     0
 40
0.001
 41
0.001
  0
VERTEX
  8
LAYER1
 10
1.5139
 20
2.7895
 30
0
 70
     0
  0
VERTEX
  8
LAYER1
 10
1.5278
 20
2.7895
 30
0
 70
     0
  0
VERTEX
  8
LAYER1
 10
1.5278
 20
2.7895
 30
0
 70
     0
  0
SEQEND
  0
LINE
  8
LAYER1
  6
CONTINUOUS
 62
     7
 10
1.375
 20
2.8034
 30
0
 11
1.5139
 21
2.7895
 31
0
  0
POLYLINE
  8
LAYER1
  6
CONTINUOUS
 62
     7
 66
     1
 70
     0
 40
0.001
 41
0.001
  0
VERTEX
  8
LAYER1
 10
1.5278
 20
3.5812
 30
0
 70
     0
  0
VERTEX
  8
LAYER1
 10
1.5278
 20
3.5812
 30
0
 70
     0
  0
VERTEX
  8
LAYER1
 10
1.5278
 20
3.5812
 30
0
 70
     0
  0
VERTEX
  8
LAYER1
 10
1.5139
 20
3.5812
 30
0
 70
     0
  0
SEQEND
  0
LINE
  8
LAYER1
  6
CONTINUOUS
 62
     7
 10
1.375
 20
3.5673
 30
0
 11
1.5139
 21
3.5812
 31
0
  0
LINE
  8
LAYER1
  6
CONTINUOUS
 62
     7
 10
1.5278
 20
2.7617
 30
0
 11
1.5278
 21
2.7895
 31
0
  0
LINE
  8
LAYER1
  6
CONTINUOUS
 62
     7
 10
1.3056
 20
2.7617
 30
0
 11
1.5278
 21
2.7617
 31
0
  0
LINE
  8
LAYER1
  6
CONTINUOUS
 62
     7
 10
1.5278
 20
3.5812
 30
0
 11
1.5278
 21
3.5951
 31
0
  0
ENDBLK
  8
LAYER1
  0
BLOCK
  8
LAYER1
  2
Group31
 70
     0
 10
0
 20
0
 30
0
  0
LINE
  8
LAYER1
  6
CONTINUOUS
 62
     7
 10
1.3056
 20
3.5951
 30
0
 11
1.5278
 21
3.5951
 31
0
  0
LINE
  8
LAYER1
  6
CONTINUOUS
 62
     7
 10
1.4306
 20
3.5673
 30
0
 11
1.4028
 21
3.5951
 31
0
  0
LINE
  8
LAYER1
  6
CONTINUOUS
 62
     7
 10
1.3333
 20
3.5395
 30
0
 11
1.3056
 21
3.5673
 31
0
  0
LINE
  8
LAYER1
  6
CONTINUOUS
 62
     7
 10
1.3333
 20
3.4145
 30
0
 11
1.3056
 21
3.4284
 31
0
  0
LINE
  8
LAYER1
  6
CONTINUOUS
 62
     7
 10
1.3333
 20
3.2756
 30
0
 11
1.3056
 21
3.3034
 31
0
  0
LINE
  8
LAYER1
  6
CONTINUOUS
 62
     7
 10
1.3333
 20
3.1506
 30
0
 11
1.3056
 21
3.1645
 31
0
  0
LINE
  8
LAYER1
  6
CONTINUOUS
 62
     7
 10
1.3333
 20
3.0117
 30
0
 11
1.3056
 21
3.0256
 31
0
  0
LINE
  8
LAYER1
  6
CONTINUOUS
 62
     7
 10
1.4444
 20
2.7617
 30
0
 11
1.4028
 21
2.8034
 31
0
  0
LINE
  8
LAYER1
  6
CONTINUOUS
 62
     7
 10
1.3333
 20
2.8728
 30
0
 11
1.3056
 21
2.9006
 31
0
  0
LINE
  8
LAYER1
  6
CONTINUOUS
 62
     7
 10
1.4722
 20
3.5673
 30
0
 11
1.4444
 21
3.5951
 31
0
  0
LINE
  8
LAYER1
  6
CONTINUOUS
 62
     7
 10
1.3611
 20
3.5673
 30
0
 11
1.3194
 21
3.5951
 31
0
  0
LINE
  8
LAYER1
  6
CONTINUOUS
 62
     7
 10
1.3333
 20
3.4562
 30
0
 11
1.3056
 21
3.4701
 31
0
  0
LINE
  8
LAYER1
  6
CONTINUOUS
 62
     7
 10
1.3333
 20
3.3173
 30
0
 11
1.3056
 21
3.3451
 31
0
  0
LINE
  8
LAYER1
  6
CONTINUOUS
 62
     7
 10
1.3333
 20
3.1923
 30
0
 11
1.3056
 21
3.2062
 31
0
  0
LINE
  8
LAYER1
  6
CONTINUOUS
 62
     7
 10
1.3333
 20
3.0534
 30
0
 11
1.3056
 21
3.0812
 31
0
  0
LINE
  8
LAYER1
  6
CONTINUOUS
 62
     7
 10
1.4861
 20
2.7617
 30
0
 11
1.4583
 21
2.8034
 31
0
  0
LINE
  8
LAYER1
  6
CONTINUOUS
 62
     7
 10
1.3333
 20
2.9284
 30
0
 11
1.3056
 21
2.9423
 31
0
  0
ENDBLK
  8
LAYER1
  0
BLOCK
  8
LAYER1
  2
Group32
 70
     0
 10
0
 20
0
 30
0
  0
INSERT
  8
LAYER1
  2
Group30
 10
0
 20
0
 30
0
  0
INSERT
  8
LAYER1
  2
Group31
 10
0
 20
0
 30
0
  0
ENDBLK
  8
LAYER1
  0
BLOCK
  8
LAYER1
  2
Group33
 70
     0
 10
0
 20
0
 30
0
  0
LINE
  8
LAYER1
  6
CONTINUOUS
 62
     7
 10
1.3472
 20
2.7617
 30
0
 11
1.3056
 21
2.8173
 31
0
  0
LINE
  8
LAYER1
  6
CONTINUOUS
 62
     7
 10
1.3056
 20
2.7617
 30
0
 11
1.0139
 21
2.7617
 31
0
  0
LINE
  8
LAYER1
  6
CONTINUOUS
 62
     7
 10
1.3056
 20
2.7617
 30
0
 11
1.3056
 21
3.0117
 31
0
  0
POLYLINE
  8
LAYER1
  6
CONTINUOUS
 62
     7
 66
     1
 70
     0
 40
0.001
 41
0.001
  0
VERTEX
  8
LAYER1
 10
1.0139
 20
2.7756
 30
0
 70
     0
  0
VERTEX
  8
LAYER1
 10
1.0139
 20
2.7756
 30
0
 70
     0
  0
VERTEX
  8
LAYER1
 10
1.0278
 20
2.7895
 30
0
 70
     0
  0
VERTEX
  8
LAYER1
 10
1.0278
 20
2.7895
 30
0
 70
     0
  0
VERTEX
  8
LAYER1
 10
1.0417
 20
2.8034
 30
0
 70
     0
  0
VERTEX
  8
LAYER1
 10
1.0417
 20
2.8034
 30
0
 70
     0
  0
SEQEND
  0
LINE
  8
LAYER1
  6
CONTINUOUS
 62
     7
 10
1.0139
 20
2.7617
 30
0
 11
1.0139
 21
2.7756
 31
0
  0
POLYLINE
  8
LAYER1
  6
CONTINUOUS
 62
     7
 66
     1
 70
     0
 40
0.001
 41
0.001
  0
VERTEX
  8
LAYER1
 10
1.2778
 20
2.9839
 30
0
 70
     0
  0
VERTEX
  8
LAYER1
 10
1.2778
 20
2.9839
 30
0
 70
     0
  0
VERTEX
  8
LAYER1
 10
1.2778
 20
2.9839
 30
0
 70
     0
  0
VERTEX
  8
LAYER1
 10
1.2917
 20
3.0117
 30
0
 70
     0
  0
VERTEX
  8
LAYER1
 10
1.2917
 20
3.0117
 30
0
 70
     0
  0
VERTEX
  8
LAYER1
 10
1.3056
 20
3.0117
 30
0
 70
     0
  0
SEQEND
  0
POLYLINE
  8
LAYER1
  6
CONTINUOUS
 62
     7
 66
     1
 70
     0
 40
0.001
 41
0.001
  0
VERTEX
  8
LAYER1
 10
1.2778
 20
2.8312
 30
0
 70
     0
  0
VERTEX
  8
LAYER1
 10
1.2778
 20
2.8312
 30
0
 70
     0
  0
VERTEX
  8
LAYER1
 10
1.2778
 20
2.8173
 30
0
 70
     0
  0
VERTEX
  8
LAYER1
 10
1.2778
 20
2.8173
 30
0
 70
     0
  0
VERTEX
  8
LAYER1
 10
1.2639
 20
2.8034
 30
0
 70
     0
  0
VERTEX
  8
LAYER1
 10
1.2639
 20
2.8034
 30
0
 70
     0
  0
VERTEX
  8
LAYER1
 10
1.25
 20
2.8034
 30
0
 70
     0
  0
VERTEX
  8
LAYER1
 10
1.2361
 20
2.8034
 30
0
 70
     0
  0
SEQEND
  0
LINE
  8
LAYER1
  6
CONTINUOUS
 62
     7
 10
1.2361
 20
2.8034
 30
0
 11
1.0417
 21
2.8034
 31
0
  0
ENDBLK
  8
LAYER1
  0
BLOCK
  8
LAYER1
  2
Group34
 70
     0
 10
0
 20
0
 30
0
  0
LINE
  8
LAYER1
  6
CONTINUOUS
 62
     7
 10
1.2778
 20
2.8312
 30
0
 11
1.2778
 21
2.9839
 31
0
  0
LINE
  8
LAYER1
  6
CONTINUOUS
 62
     7
 10
1.3056
 20
2.8867
 30
0
 11
1.2778
 21
2.9145
 31
0
  0
LINE
  8
LAYER1
  6
CONTINUOUS
 62
     7
 10
1.2917
 20
2.7617
 30
0
 11
1.25
 21
2.8034
 31
0
  0
LINE
  8
LAYER1
  6
CONTINUOUS
 62
     7
 10
1.1528
 20
2.7617
 30
0
 11
1.125
 21
2.8034
 31
0
  0
LINE
  8
LAYER1
  6
CONTINUOUS
 62
     7
 10
1.0278
 20
2.7617
 30
0
 11
1.0139
 21
2.7756
 31
0
  0
LINE
  8
LAYER1
  6
CONTINUOUS
 62
     7
 10
1.3056
 20
2.9284
 30
0
 11
1.2778
 21
2.9562
 31
0
  0
LINE
  8
LAYER1
  6
CONTINUOUS
 62
     7
 10
1.3056
 20
2.7895
 30
0
 11
1.2778
 21
2.8312
 31
0
  0
LINE
  8
LAYER1
  6
CONTINUOUS
 62
     7
 10
1.2083
 20
2.7617
 30
0
 11
1.1667
 21
2.8034
 31
0
  0
ENDBLK
  8
LAYER1
  0
BLOCK
  8
LAYER1
  2
Group35
 70
     0
 10
0
 20
0
 30
0
  0
INSERT
  8
LAYER1
  2
Group33
 10
0
 20
0
 30
0
  0
INSERT
  8
LAYER1
  2
Group34
 10
0
 20
0
 30
0
  0
ENDBLK
  8
LAYER1
  0
BLOCK
  8
LAYER1
  2
Group36
 70
     0
 10
0
 20
0
 30
0
  0
INSERT
  8
LAYER1
  2
Group32
 10
0
 20
0
 30
0
  0
INSERT
  8
LAYER1
  2
Group35
 10
0
 20
0
 30
0
  0
ENDBLK
  8
LAYER1
  0
BLOCK
  8
LAYER1
  2
Group37
 70
     0
 10
0
 20
0
 30
0
  0
LINE
  8
LAYER1
  6
CONTINUOUS
 62
     7
 10
1.0694
 20
2.7617
 30
0
 11
1.0417
 21
2.8034
 31
0
  0
POLYLINE
  8
LAYER1
  6
CONTINUOUS
 62
     7
 66
     1
 70
     0
 40
0.001
 41
0.001
  0
VERTEX
  8
LAYER1
 10
3.1667
 20
10.0117
 30
0
 70
     0
  0
VERTEX
  8
LAYER1
 10
3.1667
 20
10.0117
 30
0
 70
     0
  0
VERTEX
  8
LAYER1
 10
3.1667
 20
10.0117
 30
0
 70
     0
  0
VERTEX
  8
LAYER1
 10
3.1806
 20
10.0395
 30
0
 70
     0
  0
VERTEX
  8
LAYER1
 10
3.1806
 20
10.0395
 30
0
 70
     0
  0
VERTEX
  8
LAYER1
 10
3.1806
 20
10.0395
 30
0
 70
     0
  0
VERTEX
  8
LAYER1
 10
3.2083
 20
10.0534
 30
0
 70
     0
  0
VERTEX
  8
LAYER1
 10
3.2222
 20
10.0534
 30
0
 70
     0
  0
SEQEND
  0
POLYLINE
  8
LAYER1
  6
CONTINUOUS
 62
     7
 66
     1
 70
     0
 40
0.001
 41
0.001
  0
VERTEX
  8
LAYER1
 10
3.2222
 20
9.1367
 30
0
 70
     0
  0
VERTEX
  8
LAYER1
 10
3.2083
 20
9.1367
 30
0
 70
     0
  0
VERTEX
  8
LAYER1
 10
3.1944
 20
9.1367
 30
0
 70
     0
  0
VERTEX
  8
LAYER1
 10
3.1806
 20
9.1506
 30
0
 70
     0
  0
VERTEX
  8
LAYER1
 10
3.1806
 20
9.1506
 30
0
 70
     0
  0
VERTEX
  8
LAYER1
 10
3.1667
 20
9.1784
 30
0
 70
     0
  0
VERTEX
  8
LAYER1
 10
3.1667
 20
9.1923
 30
0
 70
     0
  0
SEQEND
  0
LINE
  8
LAYER1
  6
CONTINUOUS
 62
     7
 10
3.1667
 20
10.0117
 30
0
 11
3.1667
 21
9.1923
 31
0
  0
LINE
  8
LAYER1
  6
CONTINUOUS
 62
     7
 10
3.1389
 20
10.0951
 30
0
 11
3.1389
 21
9.0951
 31
0
  0
POLYLINE
  8
LAYER1
  6
CONTINUOUS
 62
     7
 66
     1
 70
     0
 40
0.001
 41
0.001
  0
VERTEX
  8
LAYER1
 10
3.3889
 20
10.0951
 30
0
 70
     0
  0
VERTEX
  8
LAYER1
 10
3.3889
 20
10.0951
 30
0
 70
     0
  0
VERTEX
  8
LAYER1
 10
3.3889
 20
10.0812
 30
0
 70
     0
  0
VERTEX
  8
LAYER1
 10
3.3889
 20
10.0673
 30
0
 70
     0
  0
VERTEX
  8
LAYER1
 10
3.3889
 20
10.0673
 30
0
 70
     0
  0
VERTEX
  8
LAYER1
 10
3.375
 20
10.0673
 30
0
 70
     0
  0
SEQEND
  0
LINE
  8
LAYER1
  6
CONTINUOUS
 62
     7
 10
3.2222
 20
10.0534
 30
0
 11
3.375
 21
10.0673
 31
0
  0
POLYLINE
  8
LAYER1
  6
CONTINUOUS
 62
     7
 66
     1
 70
     0
 40
0.001
 41
0.001
  0
VERTEX
  8
LAYER1
 10
3.375
 20
9.1367
 30
0
 70
     0
  0
VERTEX
  8
LAYER1
 10
3.375
 20
9.1228
 30
0
 70
     0
  0
VERTEX
  8
LAYER1
 10
3.3889
 20
9.1228
 30
0
 70
     0
  0
VERTEX
  8
LAYER1
 10
3.3889
 20
9.1228
 30
0
 70
     0
  0
VERTEX
  8
LAYER1
 10
3.3889
 20
9.1089
 30
0
 70
     0
  0
SEQEND
  0
LINE
  8
LAYER1
  6
CONTINUOUS
 62
     7
 10
3.2222
 20
9.1367
 30
0
 11
3.375
 21
9.1367
 31
0
  0
LINE
  8
LAYER1
  6
CONTINUOUS
 62
     7
 10
3.3889
 20
9.1089
 30
0
 11
3.3889
 21
9.0951
 31
0
  0
LINE
  8
LAYER1
  6
CONTINUOUS
 62
     7
 10
3.1389
 20
9.0951
 30
0
 11
3.3889
 21
9.0951
 31
0
  0
ENDBLK
  8
LAYER1
  0
BLOCK
  8
LAYER1
  2
Group38
 70
     0
 10
0
 20
0
 30
0
  0
LINE
  8
LAYER1
  6
CONTINUOUS
 62
     7
 10
3.1389
 20
10.0951
 30
0
 11
3.3889
 21
10.0951
 31
0
  0
LINE
  8
LAYER1
  6
CONTINUOUS
 62
     7
 10
3.3333
 20
9.1367
 30
0
 11
3.2917
 21
9.0951
 31
0
  0
LINE
  8
LAYER1
  6
CONTINUOUS
 62
     7
 10
3.2083
 20
9.1367
 30
0
 11
3.1667
 21
9.0951
 31
0
  0
LINE
  8
LAYER1
  6
CONTINUOUS
 62
     7
 10
3.1667
 20
9.2339
 30
0
 11
3.1389
 21
9.2062
 31
0
  0
LINE
  8
LAYER1
  6
CONTINUOUS
 62
     7
 10
3.1667
 20
9.3728
 30
0
 11
3.1389
 21
9.3451
 31
0
  0
LINE
  8
LAYER1
  6
CONTINUOUS
 62
     7
 10
3.1667
 20
9.4978
 30
0
 11
3.1389
 21
9.4839
 31
0
  0
LINE
  8
LAYER1
  6
CONTINUOUS
 62
     7
 10
3.1667
 20
9.6367
 30
0
 11
3.1389
 21
9.6089
 31
0
  0
LINE
  8
LAYER1
  6
CONTINUOUS
 62
     7
 10
3.1667
 20
9.7756
 30
0
 11
3.1389
 21
9.7478
 31
0
  0
LINE
  8
LAYER1
  6
CONTINUOUS
 62
     7
 10
3.3611
 20
10.0951
 30
0
 11
3.3333
 21
10.0673
 31
0
  0
LINE
  8
LAYER1
  6
CONTINUOUS
 62
     7
 10
3.1667
 20
9.9006
 30
0
 11
3.1389
 21
9.8728
 31
0
  0
LINE
  8
LAYER1
  6
CONTINUOUS
 62
     7
 10
3.2361
 20
10.0951
 30
0
 11
3.1389
 21
10.0117
 31
0
  0
LINE
  8
LAYER1
  6
CONTINUOUS
 62
     7
 10
3.375
 20
9.1367
 30
0
 11
3.3472
 21
9.0951
 31
0
  0
LINE
  8
LAYER1
  6
CONTINUOUS
 62
     7
 10
3.25
 20
9.1367
 30
0
 11
3.2083
 21
9.0951
 31
0
  0
LINE
  8
LAYER1
  6
CONTINUOUS
 62
     7
 10
3.1667
 20
9.1923
 30
0
 11
3.1389
 21
9.1645
 31
0
  0
LINE
  8
LAYER1
  6
CONTINUOUS
 62
     7
 10
3.1667
 20
9.3312
 30
0
 11
3.1389
 21
9.3034
 31
0
  0
LINE
  8
LAYER1
  6
CONTINUOUS
 62
     7
 10
3.1667
 20
9.4562
 30
0
 11
3.1389
 21
9.4284
 31
0
  0
LINE
  8
LAYER1
  6
CONTINUOUS
 62
     7
 10
3.1667
 20
9.5951
 30
0
 11
3.1389
 21
9.5673
 31
0
  0
LINE
  8
LAYER1
  6
CONTINUOUS
 62
     7
 10
3.1667
 20
9.7201
 30
0
 11
3.1389
 21
9.7062
 31
0
  0
LINE
  8
LAYER1
  6
CONTINUOUS
 62
     7
 10
3.1667
 20
9.8589
 30
0
 11
3.1389
 21
9.8312
 31
0
  0
LINE
  8
LAYER1
  6
CONTINUOUS
 62
     7
 10
3.2778
 20
10.0951
 30
0
 11
3.2361
 21
10.0673
 31
0
  0
LINE
  8
LAYER1
  6
CONTINUOUS
 62
     7
 10
3.1667
 20
9.9978
 30
0
 11
3.1389
 21
9.9701
 31
0
  0
ENDBLK
  8
LAYER1
  0
BLOCK
  8
LAYER1
  2
Group39
 70
     0
 10
0
 20
0
 30
0
  0
INSERT
  8
LAYER1
  2
Group37
 10
0
 20
0
 30
0
  0
INSERT
  8
LAYER1
  2
Group38
 10
0
 20
0
 30
0
  0
ENDBLK
  8
LAYER1
  0
BLOCK
  8
LAYER1
  2
Group40
 70
     0
 10
0
 20
0
 30
0
  0
LINE
  8
LAYER1
  6
CONTINUOUS
 62
     7
 10
3.1528
 20
10.0951
 30
0
 11
3.1389
 21
10.0951
 31
0
  0
LINE
  8
LAYER1
  6
CONTINUOUS
 62
     7
 10
3.1528
 20
9.0951
 30
0
 11
2.8611
 21
9.0951
 31
0
  0
LINE
  8
LAYER1
  6
CONTINUOUS
 62
     7
 10
3.1528
 20
9.0951
 30
0
 11
3.1528
 21
9.3451
 31
0
  0
POLYLINE
  8
LAYER1
  6
CONTINUOUS
 62
     7
 66
     1
 70
     0
 40
0.001
 41
0.001
  0
VERTEX
  8
LAYER1
 10
2.8611
 20
9.0951
 30
0
 70
     0
  0
VERTEX
  8
LAYER1
 10
2.8611
 20
9.0951
 30
0
 70
     0
  0
VERTEX
  8
LAYER1
 10
2.8611
 20
9.0951
 30
0
 70
     0
  0
VERTEX
  8
LAYER1
 10
2.8611
 20
9.1089
 30
0
 70
     0
  0
VERTEX
  8
LAYER1
 10
2.8611
 20
9.1228
 30
0
 70
     0
  0
VERTEX
  8
LAYER1
 10
2.8611
 20
9.1228
 30
0
 70
     0
  0
VERTEX
  8
LAYER1
 10
2.8889
 20
9.1367
 30
0
 70
     0
  0
VERTEX
  8
LAYER1
 10
2.8889
 20
9.1367
 30
0
 70
     0
  0
SEQEND
  0
POLYLINE
  8
LAYER1
  6
CONTINUOUS
 62
     7
 66
     1
 70
     0
 40
0.001
 41
0.001
  0
VERTEX
  8
LAYER1
 10
3.1111
 20
9.3173
 30
0
 70
     0
  0
VERTEX
  8
LAYER1
 10
3.1111
 20
9.3173
 30
0
 70
     0
  0
VERTEX
  8
LAYER1
 10
3.1111
 20
9.3173
 30
0
 70
     0
  0
VERTEX
  8
LAYER1
 10
3.125
 20
9.3451
 30
0
 70
     0
  0
VERTEX
  8
LAYER1
 10
3.125
 20
9.3451
 30
0
 70
     0
  0
VERTEX
  8
LAYER1
 10
3.1389
 20
9.3451
 30
0
 70
     0
  0
VERTEX
  8
LAYER1
 10
3.1528
 20
9.3451
 30
0
 70
     0
  0
VERTEX
  8
LAYER1
 10
3.1528
 20
9.3451
 30
0
 70
     0
  0
SEQEND
  0
POLYLINE
  8
LAYER1
  6
CONTINUOUS
 62
     7
 66
     1
 70
     0
 40
0.001
 41
0.001
  0
VERTEX
  8
LAYER1
 10
3.1111
 20
9.1645
 30
0
 70
     0
  0
VERTEX
  8
LAYER1
 10
3.1111
 20
9.1645
 30
0
 70
     0
  0
VERTEX
  8
LAYER1
 10
3.1111
 20
9.1506
 30
0
 70
     0
  0
VERTEX
  8
LAYER1
 10
3.1111
 20
9.1367
 30
0
 70
     0
  0
VERTEX
  8
LAYER1
 10
3.1111
 20
9.1367
 30
0
 70
     0
  0
VERTEX
  8
LAYER1
 10
3.1111
 20
9.1367
 30
0
 70
     0
  0
VERTEX
  8
LAYER1
 10
3.0972
 20
9.1367
 30
0
 70
     0
  0
VERTEX
  8
LAYER1
 10
3.0833
 20
9.1367
 30
0
 70
     0
  0
SEQEND
  0
LINE
  8
LAYER1
  6
CONTINUOUS
 62
     7
 10
3.0833
 20
9.1367
 30
0
 11
2.8889
 21
9.1367
 31
0
  0
ENDBLK
  8
LAYER1
  0
BLOCK
  8
LAYER1
  2
Group41
 70
     0
 10
0
 20
0
 30
0
  0
LINE
  8
LAYER1
  6
CONTINUOUS
 62
     7
 10
3.1111
 20
9.1645
 30
0
 11
3.1111
 21
9.3173
 31
0
  0
LINE
  8
LAYER1
  6
CONTINUOUS
 62
     7
 10
3.1528
 20
9.2201
 30
0
 11
3.1111
 21
9.2478
 31
0
  0
LINE
  8
LAYER1
  6
CONTINUOUS
 62
     7
 10
3.125
 20
9.0951
 30
0
 11
3.0972
 21
9.1367
 31
0
  0
LINE
  8
LAYER1
  6
CONTINUOUS
 62
     7
 10
3
 20
9.0951
 30
0
 11
2.9722
 21
9.1367
 31
0
  0
LINE
  8
LAYER1
  6
CONTINUOUS
 62
     7
 10
2.8611
 20
9.0951
 30
0
 11
2.8611
 21
9.1089
 31
0
  0
LINE
  8
LAYER1
  6
CONTINUOUS
 62
     7
 10
3.1528
 20
9.2617
 30
0
 11
3.1111
 21
9.2895
 31
0
  0
LINE
  8
LAYER1
  6
CONTINUOUS
 62
     7
 10
3.1528
 20
9.1228
 30
0
 11
3.1111
 21
9.1645
 31
0
  0
LINE
  8
LAYER1
  6
CONTINUOUS
 62
     7
 10
3.0417
 20
9.0951
 30
0
 11
3.0139
 21
9.1367
 31
0
  0
ENDBLK
  8
LAYER1
  0
BLOCK
  8
LAYER1
  2
Group42
 70
     0
 10
0
 20
0
 30
0
  0
INSERT
  8
LAYER1
  2
Group40
 10
0
 20
0
 30
0
  0
INSERT
  8
LAYER1
  2
Group41
 10
0
 20
0
 30
0
  0
ENDBLK
  8
LAYER1
  0
BLOCK
  8
LAYER1
  2
Group43
 70
     0
 10
0
 20
0
 30
0
  0
INSERT
  8
LAYER1
  2
Group39
 10
0
 20
0
 30
0
  0
INSERT
  8
LAYER1
  2
Group42
 10
0
 20
0
 30
0
  0
ENDBLK
  8
LAYER1
  0
BLOCK
  8
LAYER1
  2
Group44
 70
     0
 10
0
 20
0
 30
0
  0
LINE
  8
LAYER1
  6
CONTINUOUS
 62
     7
 10
2.9028
 20
9.0951
 30
0
 11
2.875
 21
9.1228
 31
0
  0
LINE
  8
LAYER1
  6
CONTINUOUS
 62
     7
 10
3.1389
 20
8.0673
 30
0
 11
3.1389
 21
7.0673
 31
0
  0
LINE
  8
LAYER1
  6
CONTINUOUS
 62
     7
 10
3.1389
 20
8.0673
 30
0
 11
3.3889
 21
8.0673
 31
0
  0
LINE
  8
LAYER1
  6
CONTINUOUS
 62
     7
 10
3.1389
 20
7.0673
 30
0
 11
3.3889
 21
7.0673
 31
0
  0
POLYLINE
  8
LAYER1
  6
CONTINUOUS
 62
     7
 66
     1
 70
     0
 40
0.001
 41
0.001
  0
VERTEX
  8
LAYER1
 10
3.1667
 20
7.9701
 30
0
 70
     0
  0
VERTEX
  8
LAYER1
 10
3.1667
 20
7.9701
 30
0
 70
     0
  0
VERTEX
  8
LAYER1
 10
3.1806
 20
7.9839
 30
0
 70
     0
  0
VERTEX
  8
LAYER1
 10
3.1944
 20
7.9978
 30
0
 70
     0
  0
VERTEX
  8
LAYER1
 10
3.1944
 20
7.9978
 30
0
 70
     0
  0
VERTEX
  8
LAYER1
 10
3.2083
 20
8.0117
 30
0
 70
     0
  0
VERTEX
  8
LAYER1
 10
3.2222
 20
8.0117
 30
0
 70
     0
  0
SEQEND
  0
POLYLINE
  8
LAYER1
  6
CONTINUOUS
 62
     7
 66
     1
 70
     0
 40
0.001
 41
0.001
  0
VERTEX
  8
LAYER1
 10
3.2222
 20
7.1089
 30
0
 70
     0
  0
VERTEX
  8
LAYER1
 10
3.1944
 20
7.1228
 30
0
 70
     0
  0
VERTEX
  8
LAYER1
 10
3.1806
 20
7.1367
 30
0
 70
     0
  0
VERTEX
  8
LAYER1
 10
3.1667
 20
7.1506
 30
0
 70
     0
  0
VERTEX
  8
LAYER1
 10
3.1667
 20
7.1645
 30
0
 70
     0
  0
SEQEND
  0
LINE
  8
LAYER1
  6
CONTINUOUS
 62
     7
 10
3.1667
 20
7.9701
 30
0
 11
3.1667
 21
7.1645
 31
0
  0
POLYLINE
  8
LAYER1
  6
CONTINUOUS
 62
     7
 66
     1
 70
     0
 40
0.001
 41
0.001
  0
VERTEX
  8
LAYER1
 10
3.3889
 20
8.0673
 30
0
 70
     0
  0
VERTEX
  8
LAYER1
 10
3.3889
 20
8.0534
 30
0
 70
     0
  0
VERTEX
  8
LAYER1
 10
3.3889
 20
8.0395
 30
0
 70
     0
  0
VERTEX
  8
LAYER1
 10
3.3889
 20
8.0395
 30
0
 70
     0
  0
VERTEX
  8
LAYER1
 10
3.375
 20
8.0256
 30
0
 70
     0
  0
VERTEX
  8
LAYER1
 10
3.375
 20
8.0256
 30
0
 70
     0
  0
VERTEX
  8
LAYER1
 10
3.3611
 20
8.0256
 30
0
 70
     0
  0
SEQEND
  0
LINE
  8
LAYER1
  6
CONTINUOUS
 62
     7
 10
3.2222
 20
8.0117
 30
0
 11
3.3611
 21
8.0256
 31
0
  0
POLYLINE
  8
LAYER1
  6
CONTINUOUS
 62
     7
 66
     1
 70
     0
 40
0.001
 41
0.001
  0
VERTEX
  8
LAYER1
 10
3.3611
 20
7.0951
 30
0
 70
     0
  0
VERTEX
  8
LAYER1
 10
3.375
 20
7.0951
 30
0
 70
     0
  0
VERTEX
  8
LAYER1
 10
3.3889
 20
7.0951
 30
0
 70
     0
  0
VERTEX
  8
LAYER1
 10
3.3889
 20
7.0951
 30
0
 70
     0
  0
VERTEX
  8
LAYER1
 10
3.3889
 20
7.0812
 30
0
 70
     0
  0
VERTEX
  8
LAYER1
 10
3.3889
 20
7.0673
 30
0
 70
     0
  0
VERTEX
  8
LAYER1
 10
3.3889
 20
7.0673
 30
0
 70
     0
  0
SEQEND
  0
ENDBLK
  8
LAYER1
  0
BLOCK
  8
LAYER1
  2
Group45
 70
     0
 10
0
 20
0
 30
0
  0
LINE
  8
LAYER1
  6
CONTINUOUS
 62
     7
 10
3.2222
 20
7.1089
 30
0
 11
3.3611
 21
7.0951
 31
0
  0
LINE
  8
LAYER1
  6
CONTINUOUS
 62
     7
 10
3.3333
 20
7.0673
 30
0
 11
3.375
 21
7.0951
 31
0
  0
LINE
  8
LAYER1
  6
CONTINUOUS
 62
     7
 10
3.2083
 20
7.0673
 30
0
 11
3.25
 21
7.1089
 31
0
  0
LINE
  8
LAYER1
  6
CONTINUOUS
 62
     7
 10
3.1389
 20
7.1367
 30
0
 11
3.1667
 21
7.1645
 31
0
  0
LINE
  8
LAYER1
  6
CONTINUOUS
 62
     7
 10
3.1389
 20
7.2617
 30
0
 11
3.1667
 21
7.3034
 31
0
  0
LINE
  8
LAYER1
  6
CONTINUOUS
 62
     7
 10
3.1389
 20
7.4006
 30
0
 11
3.1667
 21
7.4284
 31
0
  0
LINE
  8
LAYER1
  6
CONTINUOUS
 62
     7
 10
3.1389
 20
7.5256
 30
0
 11
3.1667
 21
7.5673
 31
0
  0
LINE
  8
LAYER1
  6
CONTINUOUS
 62
     7
 10
3.1389
 20
7.6645
 30
0
 11
3.1667
 21
7.6923
 31
0
  0
LINE
  8
LAYER1
  6
CONTINUOUS
 62
     7
 10
3.1389
 20
7.8034
 30
0
 11
3.1667
 21
7.8312
 31
0
  0
LINE
  8
LAYER1
  6
CONTINUOUS
 62
     7
 10
3.375
 20
8.0395
 30
0
 11
3.3889
 21
8.0534
 31
0
  0
LINE
  8
LAYER1
  6
CONTINUOUS
 62
     7
 10
3.1389
 20
7.9284
 30
0
 11
3.1667
 21
7.9562
 31
0
  0
LINE
  8
LAYER1
  6
CONTINUOUS
 62
     7
 10
3.2222
 20
8.0256
 30
0
 11
3.2778
 21
8.0673
 31
0
  0
LINE
  8
LAYER1
  6
CONTINUOUS
 62
     7
 10
3.3889
 20
7.0673
 30
0
 11
3.3889
 21
7.0812
 31
0
  0
LINE
  8
LAYER1
  6
CONTINUOUS
 62
     7
 10
3.25
 20
7.0673
 30
0
 11
3.2917
 21
7.1089
 31
0
  0
LINE
  8
LAYER1
  6
CONTINUOUS
 62
     7
 10
3.1389
 20
7.0951
 30
0
 11
3.1806
 21
7.1367
 31
0
  0
LINE
  8
LAYER1
  6
CONTINUOUS
 62
     7
 10
3.1389
 20
7.2201
 30
0
 11
3.1667
 21
7.2478
 31
0
  0
LINE
  8
LAYER1
  6
CONTINUOUS
 62
     7
 10
3.1389
 20
7.3589
 30
0
 11
3.1667
 21
7.3867
 31
0
  0
LINE
  8
LAYER1
  6
CONTINUOUS
 62
     7
 10
3.1389
 20
7.4839
 30
0
 11
3.1667
 21
7.5256
 31
0
  0
LINE
  8
LAYER1
  6
CONTINUOUS
 62
     7
 10
3.1389
 20
7.6228
 30
0
 11
3.1667
 21
7.6506
 31
0
  0
LINE
  8
LAYER1
  6
CONTINUOUS
 62
     7
 10
3.1389
 20
7.7478
 30
0
 11
3.1667
 21
7.7895
 31
0
  0
LINE
  8
LAYER1
  6
CONTINUOUS
 62
     7
 10
3.1389
 20
7.8867
 30
0
 11
3.1667
 21
7.9145
 31
0
  0
LINE
  8
LAYER1
  6
CONTINUOUS
 62
     7
 10
3.2778
 20
8.0256
 30
0
 11
3.3194
 21
8.0673
 31
0
  0
ENDBLK
  8
LAYER1
  0
BLOCK
  8
LAYER1
  2
Group46
 70
     0
 10
0
 20
0
 30
0
  0
INSERT
  8
LAYER1
  2
Group44
 10
0
 20
0
 30
0
  0
INSERT
  8
LAYER1
  2
Group45
 10
0
 20
0
 30
0
  0
ENDBLK
  8
LAYER1
  0
BLOCK
  8
LAYER1
  2
Group47
 70
     0
 10
0
 20
0
 30
0
  0
LINE
  8
LAYER1
  6
CONTINUOUS
 62
     7
 10
3.1389
 20
8.0256
 30
0
 11
3.1944
 21
8.0673
 31
0
  0
LINE
  8
LAYER1
  6
CONTINUOUS
 62
     7
 10
3.1389
 20
7.0673
 30
0
 11
3.1389
 21
7.3589
 31
0
  0
LINE
  8
LAYER1
  6
CONTINUOUS
 62
     7
 10
3.1389
 20
7.0673
 30
0
 11
2.8889
 21
7.0673
 31
0
  0
POLYLINE
  8
LAYER1
  6
CONTINUOUS
 62
     7
 66
     1
 70
     0
 40
0.001
 41
0.001
  0
VERTEX
  8
LAYER1
 10
3.1111
 20
7.3242
 30
0
 70
     0
  0
VERTEX
  8
LAYER1
 10
3.1139
 20
7.3377
 30
0
 70
     0
  0
VERTEX
  8
LAYER1
 10
3.1213
 20
7.3487
 30
0
 70
     0
  0
VERTEX
  8
LAYER1
 10
3.1324
 20
7.3562
 30
0
 70
     0
  0
VERTEX
  8
LAYER1
 10
3.1458
 20
7.3589
 30
0
 70
     0
  0
SEQEND
  0
POLYLINE
  8
LAYER1
  6
CONTINUOUS
 62
     7
 66
     1
 70
     0
 40
0.001
 41
0.001
  0
VERTEX
  8
LAYER1
 10
2.8889
 20
7.0603
 30
0
 70
     0
  0
VERTEX
  8
LAYER1
 10
2.8916
 20
7.0738
 30
0
 70
     0
  0
VERTEX
  8
LAYER1
 10
2.8991
 20
7.0848
 30
0
 70
     0
  0
VERTEX
  8
LAYER1
 10
2.9102
 20
7.0923
 30
0
 70
     0
  0
VERTEX
  8
LAYER1
 10
2.9236
 20
7.0951
 30
0
 70
     0
  0
SEQEND
  0
POLYLINE
  8
LAYER1
  6
CONTINUOUS
 62
     7
 66
     1
 70
     0
 40
0.001
 41
0.001
  0
VERTEX
  8
LAYER1
 10
3.1111
 20
7.1367
 30
0
 70
     0
  0
VERTEX
  8
LAYER1
 10
3.1078
 20
7.1206
 30
0
 70
     0
  0
VERTEX
  8
LAYER1
 10
3.0988
 20
7.1073
 30
0
 70
     0
  0
VERTEX
  8
LAYER1
 10
3.0856
 20
7.0984
 30
0
 70
     0
  0
VERTEX
  8
LAYER1
 10
3.0694
 20
7.0951
 30
0
 70
     0
  0
SEQEND
  0
LINE
  8
LAYER1
  6
CONTINUOUS
 62
     7
 10
3.1111
 20
7.1367
 30
0
 11
3.1111
 21
7.3312
 31
0
  0
ENDBLK
  8
LAYER1
  0
BLOCK
  8
LAYER1
  2
Group48
 70
     0
 10
0
 20
0
 30
0
  0
LINE
  8
LAYER1
  6
CONTINUOUS
 62
     7
 10
3.0694
 20
7.0951
 30
0
 11
2.9167
 21
7.0951
 31
0
  0
LINE
  8
LAYER1
  6
CONTINUOUS
 62
     7
 10
3.0278
 20
7.0673
 30
0
 11
2.9861
 21
7.0951
 31
0
  0
LINE
  8
LAYER1
  6
CONTINUOUS
 62
     7
 10
3.1389
 20
7.0812
 30
0
 11
3.0972
 21
7.1228
 31
0
  0
LINE
  8
LAYER1
  6
CONTINUOUS
 62
     7
 10
3.1389
 20
7.2201
 30
0
 11
3.1111
 21
7.2478
 31
0
  0
LINE
  8
LAYER1
  6
CONTINUOUS
 62
     7
 10
3.1389
 20
7.3451
 30
0
 11
3.125
 21
7.3589
 31
0
  0
LINE
  8
LAYER1
  6
CONTINUOUS
 62
     7
 10
2.9722
 20
7.0673
 30
0
 11
2.9444
 21
7.0951
 31
0
  0
LINE
  8
LAYER1
  6
CONTINUOUS
 62
     7
 10
3.1111
 20
7.0673
 30
0
 11
3.0833
 21
7.0951
 31
0
  0
LINE
  8
LAYER1
  6
CONTINUOUS
 62
     7
 10
3.1389
 20
7.1645
 30
0
 11
3.1111
 21
7.2062
 31
0
  0
ENDBLK
  8
LAYER1
  0
BLOCK
  8
LAYER1
  2
Group49
 70
     0
 10
0
 20
0
 30
0
  0
INSERT
  8
LAYER1
  2
Group47
 10
0
 20
0
 30
0
  0
INSERT
  8
LAYER1
  2
Group48
 10
0
 20
0
 30
0
  0
ENDBLK
  8
LAYER1
  0
BLOCK
  8
LAYER1
  2
Group50
 70
     0
 10
0
 20
0
 30
0
  0
INSERT
  8
LAYER1
  2
Group46
 10
0
 20
0
 30
0
  0
INSERT
  8
LAYER1
  2
Group49
 10
0
 20
0
 30
0
  0
ENDBLK
  8
LAYER1
  0
BLOCK
  8
LAYER1
  2
Group51
 70
     0
 10
0
 20
0
 30
0
  0
LINE
  8
LAYER1
  6
CONTINUOUS
 62
     7
 10
3.1389
 20
7.3034
 30
0
 11
3.1111
 21
7.3312
 31
0
  0
POLYLINE
  8
LAYER1
  6
CONTINUOUS
 62
     7
 66
     1
 70
     0
 40
0.001
 41
0.001
  0
VERTEX
  8
LAYER1
 10
3.1111
 20
4.8589
 30
0
 70
     0
  0
VERTEX
  8
LAYER1
 10
3.1111
 20
4.8589
 30
0
 70
     0
  0
VERTEX
  8
LAYER1
 10
3.0833
 20
4.8589
 30
0
 70
     0
  0
VERTEX
  8
LAYER1
 10
3.0694
 20
4.8728
 30
0
 70
     0
  0
VERTEX
  8
LAYER1
 10
3.0694
 20
4.8867
 30
0
 70
     0
  0
VERTEX
  8
LAYER1
 10
3.0556
 20
4.9145
 30
0
 70
     0
  0
VERTEX
  8
LAYER1
 10
3.0556
 20
4.9284
 30
0
 70
     0
  0
SEQEND
  0
POLYLINE
  8
LAYER1
  6
CONTINUOUS
 62
     7
 66
     1
 70
     0
 40
0.001
 41
0.001
  0
VERTEX
  8
LAYER1
 10
3.0556
 20
5.9423
 30
0
 70
     0
  0
VERTEX
  8
LAYER1
 10
3.0556
 20
5.9423
 30
0
 70
     0
  0
VERTEX
  8
LAYER1
 10
3.0556
 20
5.9562
 30
0
 70
     0
  0
VERTEX
  8
LAYER1
 10
3.0694
 20
5.9839
 30
0
 70
     0
  0
VERTEX
  8
LAYER1
 10
3.0694
 20
5.9839
 30
0
 70
     0
  0
VERTEX
  8
LAYER1
 10
3.0833
 20
5.9978
 30
0
 70
     0
  0
VERTEX
  8
LAYER1
 10
3.1111
 20
6.0117
 30
0
 70
     0
  0
VERTEX
  8
LAYER1
 10
3.1111
 20
6.0117
 30
0
 70
     0
  0
SEQEND
  0
LINE
  8
LAYER1
  6
CONTINUOUS
 62
     7
 10
3.0556
 20
4.9284
 30
0
 11
3.0556
 21
5.9423
 31
0
  0
LINE
  8
LAYER1
  6
CONTINUOUS
 62
     7
 10
3.0139
 20
4.8034
 30
0
 11
3.0139
 21
6.0534
 31
0
  0
POLYLINE
  8
LAYER1
  6
CONTINUOUS
 62
     7
 66
     1
 70
     0
 40
0.001
 41
0.001
  0
VERTEX
  8
LAYER1
 10
3.2778
 20
4.8451
 30
0
 70
     0
  0
VERTEX
  8
LAYER1
 10
3.2917
 20
4.8451
 30
0
 70
     0
  0
VERTEX
  8
LAYER1
 10
3.3056
 20
4.8312
 30
0
 70
     0
  0
SEQEND
  0
LINE
  8
LAYER1
  6
CONTINUOUS
 62
     7
 10
3.1111
 20
4.8589
 30
0
 11
3.2778
 21
4.8451
 31
0
  0
POLYLINE
  8
LAYER1
  6
CONTINUOUS
 62
     7
 66
     1
 70
     0
 40
0.001
 41
0.001
  0
VERTEX
  8
LAYER1
 10
3.3056
 20
6.0395
 30
0
 70
     0
  0
VERTEX
  8
LAYER1
 10
3.3056
 20
6.0395
 30
0
 70
     0
  0
VERTEX
  8
LAYER1
 10
3.3056
 20
6.0256
 30
0
 70
     0
  0
VERTEX
  8
LAYER1
 10
3.3056
 20
6.0256
 30
0
 70
     0
  0
VERTEX
  8
LAYER1
 10
3.2917
 20
6.0256
 30
0
 70
     0
  0
VERTEX
  8
LAYER1
 10
3.2778
 20
6.0256
 30
0
 70
     0
  0
SEQEND
  0
LINE
  8
LAYER1
  6
CONTINUOUS
 62
     7
 10
3.1111
 20
6.0117
 30
0
 11
3.2778
 21
6.0256
 31
0
  0
LINE
  8
LAYER1
  6
CONTINUOUS
 62
     7
 10
3.3056
 20
6.0395
 30
0
 11
3.3056
 21
6.0534
 31
0
  0
LINE
  8
LAYER1
  6
CONTINUOUS
 62
     7
 10
3.0139
 20
6.0534
 30
0
 11
3.3056
 21
6.0534
 31
0
  0
LINE
  8
LAYER1
  6
CONTINUOUS
 62
     7
 10
3.3056
 20
4.8034
 30
0
 11
3.3056
 21
4.8312
 31
0
  0
ENDBLK
  8
LAYER1
  0
BLOCK
  8
LAYER1
  2
Group52
 70
     0
 10
0
 20
0
 30
0
  0
LINE
  8
LAYER1
  6
CONTINUOUS
 62
     7
 10
3.0139
 20
4.8034
 30
0
 11
3.3056
 21
4.8034
 31
0
  0
LINE
  8
LAYER1
  6
CONTINUOUS
 62
     7
 10
3.2222
 20
6.0117
 30
0
 11
3.1667
 21
6.0534
 31
0
  0
LINE
  8
LAYER1
  6
CONTINUOUS
 62
     7
 10
3.0972
 20
6.0117
 30
0
 11
3.0417
 21
6.0534
 31
0
  0
LINE
  8
LAYER1
  6
CONTINUOUS
 62
     7
 10
3.0556
 20
5.9145
 30
0
 11
3.0139
 21
5.9423
 31
0
  0
LINE
  8
LAYER1
  6
CONTINUOUS
 62
     7
 10
3.0556
 20
5.7756
 30
0
 11
3.0139
 21
5.8173
 31
0
  0
LINE
  8
LAYER1
  6
CONTINUOUS
 62
     7
 10
3.0556
 20
5.6506
 30
0
 11
3.0139
 21
5.6784
 31
0
  0
LINE
  8
LAYER1
  6
CONTINUOUS
 62
     7
 10
3.0556
 20
5.5117
 30
0
 11
3.0139
 21
5.5534
 31
0
  0
LINE
  8
LAYER1
  6
CONTINUOUS
 62
     7
 10
3.0556
 20
5.3867
 30
0
 11
3.0139
 21
5.4145
 31
0
  0
LINE
  8
LAYER1
  6
CONTINUOUS
 62
     7
 10
3.0556
 20
5.2478
 30
0
 11
3.0139
 21
5.2756
 31
0
  0
LINE
  8
LAYER1
  6
CONTINUOUS
 62
     7
 10
3.0556
 20
5.1228
 30
0
 11
3.0139
 21
5.1506
 31
0
  0
LINE
  8
LAYER1
  6
CONTINUOUS
 62
     7
 10
3.2222
 20
4.8034
 30
0
 11
3.1806
 21
4.8589
 31
0
  0
LINE
  8
LAYER1
  6
CONTINUOUS
 62
     7
 10
3.0556
 20
4.9839
 30
0
 11
3.0139
 21
5.0117
 31
0
  0
LINE
  8
LAYER1
  6
CONTINUOUS
 62
     7
 10
3.0972
 20
4.8034
 30
0
 11
3.0139
 21
4.8867
 31
0
  0
LINE
  8
LAYER1
  6
CONTINUOUS
 62
     7
 10
3.2639
 20
6.0117
 30
0
 11
3.2222
 21
6.0534
 31
0
  0
LINE
  8
LAYER1
  6
CONTINUOUS
 62
     7
 10
3.125
 20
6.0117
 30
0
 11
3.0833
 21
6.0534
 31
0
  0
LINE
  8
LAYER1
  6
CONTINUOUS
 62
     7
 10
3.0556
 20
5.9562
 30
0
 11
3.0139
 21
5.9839
 31
0
  0
LINE
  8
LAYER1
  6
CONTINUOUS
 62
     7
 10
3.0556
 20
5.8312
 30
0
 11
3.0139
 21
5.8589
 31
0
  0
LINE
  8
LAYER1
  6
CONTINUOUS
 62
     7
 10
3.0556
 20
5.6923
 30
0
 11
3.0139
 21
5.7201
 31
0
  0
LINE
  8
LAYER1
  6
CONTINUOUS
 62
     7
 10
3.0556
 20
5.5534
 30
0
 11
3.0139
 21
5.5951
 31
0
  0
LINE
  8
LAYER1
  6
CONTINUOUS
 62
     7
 10
3.0556
 20
5.4284
 30
0
 11
3.0139
 21
5.4562
 31
0
  0
LINE
  8
LAYER1
  6
CONTINUOUS
 62
     7
 10
3.0556
 20
5.2895
 30
0
 11
3.0139
 21
5.3312
 31
0
  0
LINE
  8
LAYER1
  6
CONTINUOUS
 62
     7
 10
3.0556
 20
5.1645
 30
0
 11
3.0139
 21
5.1923
 31
0
  0
LINE
  8
LAYER1
  6
CONTINUOUS
 62
     7
 10
3.2778
 20
4.8034
 30
0
 11
3.2222
 21
4.8451
 31
0
  0
LINE
  8
LAYER1
  6
CONTINUOUS
 62
     7
 10
3.0556
 20
5.0256
 30
0
 11
3.0139
 21
5.0534
 31
0
  0
ENDBLK
  8
LAYER1
  0
BLOCK
  8
LAYER1
  2
Group53
 70
     0
 10
0
 20
0
 30
0
  0
INSERT
  8
LAYER1
  2
Group51
 10
0
 20
0
 30
0
  0
INSERT
  8
LAYER1
  2
Group52
 10
0
 20
0
 30
0
  0
ENDBLK
  8
LAYER1
  0
BLOCK
  8
LAYER1
  2
Group54
 70
     0
 10
0
 20
0
 30
0
  0
LINE
  8
LAYER1
  6
CONTINUOUS
 62
     7
 10
3.1389
 20
4.8034
 30
0
 11
3.0139
 21
4.9284
 31
0
  0
LINE
  8
LAYER1
  6
CONTINUOUS
 62
     7
 10
3.0278
 20
4.8034
 30
0
 11
3.0278
 21
5.1784
 31
0
  0
LINE
  8
LAYER1
  6
CONTINUOUS
 62
     7
 10
3.0278
 20
4.8034
 30
0
 11
2.7778
 21
4.8034
 31
0
  0
POLYLINE
  8
LAYER1
  6
CONTINUOUS
 62
     7
 66
     1
 70
     0
 40
0.001
 41
0.001
  0
VERTEX
  8
LAYER1
 10
3
 20
4.8728
 30
0
 70
     0
  0
VERTEX
  8
LAYER1
 10
2.9967
 20
4.8567
 30
0
 70
     0
  0
VERTEX
  8
LAYER1
 10
2.9877
 20
4.8434
 30
0
 70
     0
  0
VERTEX
  8
LAYER1
 10
2.9745
 20
4.8345
 30
0
 70
     0
  0
VERTEX
  8
LAYER1
 10
2.9583
 20
4.8312
 30
0
 70
     0
  0
SEQEND
  0
POLYLINE
  8
LAYER1
  6
CONTINUOUS
 62
     7
 66
     1
 70
     0
 40
0.001
 41
0.001
  0
VERTEX
  8
LAYER1
 10
2.9861
 20
5.1437
 30
0
 70
     0
  0
VERTEX
  8
LAYER1
 10
2.9889
 20
5.1571
 30
0
 70
     0
  0
VERTEX
  8
LAYER1
 10
2.9963
 20
5.1682
 30
0
 70
     0
  0
VERTEX
  8
LAYER1
 10
3.0074
 20
5.1756
 30
0
 70
     0
  0
VERTEX
  8
LAYER1
 10
3.0208
 20
5.1784
 30
0
 70
     0
  0
SEQEND
  0
LINE
  8
LAYER1
  6
CONTINUOUS
 62
     7
 10
2.9861
 20
4.8728
 30
0
 11
2.9861
 21
5.1506
 31
0
  0
POLYLINE
  8
LAYER1
  6
CONTINUOUS
 62
     7
 66
     1
 70
     0
 40
0.001
 41
0.001
  0
VERTEX
  8
LAYER1
 10
2.7778
 20
4.8103
 30
0
 70
     0
  0
VERTEX
  8
LAYER1
 10
2.7805
 20
4.8238
 30
0
 70
     0
  0
VERTEX
  8
LAYER1
 10
2.788
 20
4.8348
 30
0
 70
     0
  0
VERTEX
  8
LAYER1
 10
2.799
 20
4.8423
 30
0
 70
     0
  0
VERTEX
  8
LAYER1
 10
2.8125
 20
4.8451
 30
0
 70
     0
  0
SEQEND
  0
ENDBLK
  8
LAYER1
  0
BLOCK
  8
LAYER1
  2
Group55
 70
     0
 10
0
 20
0
 30
0
  0
LINE
  8
LAYER1
  6
CONTINUOUS
 62
     7
 10
2.9583
 20
4.8451
 30
0
 11
2.8056
 21
4.8451
 31
0
  0
LINE
  8
LAYER1
  6
CONTINUOUS
 62
     7
 10
2.7917
 20
4.8034
 30
0
 11
2.7778
 21
4.8173
 31
0
  0
LINE
  8
LAYER1
  6
CONTINUOUS
 62
     7
 10
2.9167
 20
4.8034
 30
0
 11
2.8889
 21
4.8451
 31
0
  0
LINE
  8
LAYER1
  6
CONTINUOUS
 62
     7
 10
3.0278
 20
4.8451
 30
0
 11
2.9861
 21
4.8728
 31
0
  0
LINE
  8
LAYER1
  6
CONTINUOUS
 62
     7
 10
3.0278
 20
4.9701
 30
0
 11
2.9861
 21
4.9978
 31
0
  0
LINE
  8
LAYER1
  6
CONTINUOUS
 62
     7
 10
3.0278
 20
5.1089
 30
0
 11
2.9861
 21
5.1367
 31
0
  0
LINE
  8
LAYER1
  6
CONTINUOUS
 62
     7
 10
2.875
 20
4.8034
 30
0
 11
2.8472
 21
4.8451
 31
0
  0
LINE
  8
LAYER1
  6
CONTINUOUS
 62
     7
 10
3.0139
 20
4.8034
 30
0
 11
2.9722
 21
4.8451
 31
0
  0
LINE
  8
LAYER1
  6
CONTINUOUS
 62
     7
 10
3.0278
 20
4.9284
 30
0
 11
2.9861
 21
4.9562
 31
0
  0
ENDBLK
  8
LAYER1
  0
BLOCK
  8
LAYER1
  2
Group56
 70
     0
 10
0
 20
0
 30
0
  0
INSERT
  8
LAYER1
  2
Group54
 10
0
 20
0
 30
0
  0
INSERT
  8
LAYER1
  2
Group55
 10
0
 20
0
 30
0
  0
ENDBLK
  8
LAYER1
  0
BLOCK
  8
LAYER1
  2
Group57
 70
     0
 10
0
 20
0
 30
0
  0
INSERT
  8
LAYER1
  2
Group53
 10
0
 20
0
 30
0
  0
INSERT
  8
LAYER1
  2
Group56
 10
0
 20
0
 30
0
  0
ENDBLK
  8
LAYER1
  0
BLOCK
  8
LAYER1
  2
Group58
 70
     0
 10
0
 20
0
 30
0
  0
TEXT
  8
LAYER1
 62
     7
 10
2.495
 20
0.0319
 30
0
 40
0.1389
  1
- 4-212 -
 50
0
999
Geneva
  0
INSERT
  8
LAYER1
  2
Group1
 10
0
 20
0
 30
0
  0
TEXT
  8
LAYER1
 62
     7
 10
0.6617
 20
9.3235
 30
0
 40
0.0833
  1
C6x8.2/L3.5x3x3/8
 50
0
999
Geneva
  0
TEXT
  8
LAYER1
 62
     7
 10
0.8283
 20
9.1291
 30
0
 40
0.0833
  1
Combo Sections
 50
0
999
Geneva
  0
TEXT
  8
LAYER1
 62
     7
 10
0.8978
 20
8.9624
 30
0
 40
0.0833
  1
Two Channels
 50
0
999
Geneva
  0
INSERT
  8
LAYER1
  2
Group8
 10
0
 20
0
 30
0
  0
TEXT
  8
LAYER1
 62
     7
 10
0.6617
 20
7.8374
 30
0
 40
0.0833
  1
C7x9.8/L3.5x3x3/8
 50
0
999
Geneva
  0
TEXT
  8
LAYER1
 62
     7
 10
0.8283
 20
7.6569
 30
0
 40
0.0833
  1
Combo Sections
 50
0
999
Geneva
  0
TEXT
  8
LAYER1
 62
     7
 10
0.8978
 20
7.4902
 30
0
 40
0.0833
  1
Two Channels
 50
0
999
Geneva
  0
INSERT
  8
LAYER1
  2
Group15
 10
0
 20
0
 30
0
  0
INSERT
  8
LAYER1
  2
Group22
 10
0
 20
0
 30
0
  0
TEXT
  8
LAYER1
 62
     7
 10
0.62
 20
6.2958
 30
0
 40
0.0833
  1
C8x11.5/L3.5x3x3/8
 50
0
999
Geneva
  0
TEXT
  8
LAYER1
 62
     7
 10
0.8283
 20
6.1152
 30
0
 40
0.0833
  1
Combo Sections
 50
0
999
Geneva
  0
TEXT
  8
LAYER1
 62
     7
 10
0.8978
 20
5.9485
 30
0
 40
0.0833
  1
Two Channels
 50
0
999
Geneva
  0
INSERT
  8
LAYER1
  2
Group29
 10
0
 20
0
 30
0
  0
TEXT
  8
LAYER1
 62
     7
 10
0.62
 20
4.5458
 30
0
 40
0.0833
  1
C9x13.4/L3.5x3x3/8
 50
0
999
Geneva
  0
TEXT
  8
LAYER1
 62
     7
 10
0.8283
 20
4.3652
 30
0
 40
0.0833
  1
Combo Sections
 50
0
999
Geneva
  0
TEXT
  8
LAYER1
 62
     7
 10
0.8978
 20
4.1985
 30
0
 40
0.0833
  1
Two Channels
 50
0
999
Geneva
  0
INSERT
  8
LAYER1
  2
Group36
 10
0
 20
0
 30
0
  0
TEXT
  8
LAYER1
 62
     7
 10
0.6061
 20
2.518
 30
0
 40
0.0833
  1
C10x15.3/L3.5x3x3/8
 50
0
999
Geneva
  0
TEXT
  8
LAYER1
 62
     7
 10
0.8561
 20
2.3374
 30
0
 40
0.0833
  1
Combo Sections
 50
0
999
Geneva
  0
TEXT
  8
LAYER1
 62
     7
 10
0.9256
 20
2.1708
 30
0
 40
0.0833
  1
Two Channels
 50
0
999
Geneva
  0
INSERT
  8
LAYER1
  2
Group43
 10
0
 20
0
 30
0
  0
TEXT
  8
LAYER1
 62
     7
 10
2.3978
 20
8.8374
 30
0
 40
0.0833
  1
C12x20.7/L3.5x3x3/8
 50
0
999
Geneva
  0
TEXT
  8
LAYER1
 62
     7
 10
2.6478
 20
8.6569
 30
0
 40
0.0833
  1
Combo Sections
 50
0
999
Geneva
  0
TEXT
  8
LAYER1
 62
     7
 10
2.7172
 20
8.4902
 30
0
 40
0.0833
  1
Two Channels
 50
0
999
Geneva
  0
INSERT
  8
LAYER1
  2
Group50
 10
0
 20
0
 30
0
  0
TEXT
  8
LAYER1
 62
     7
 10
2.4395
 20
6.7541
 30
0
 40
0.0833
  1
C12x25/L3.5x3x3/8
 50
0
999
Geneva
  0
TEXT
  8
LAYER1
 62
     7
 10
2.62
 20
6.5735
 30
0
 40
0.0833
  1
Combo Sections
 50
0
999
Geneva
  0
TEXT
  8
LAYER1
 62
     7
 10
2.6895
 20
6.4069
 30
0
 40
0.0833
  1
Two Channels
 50
0
999
Geneva
  0
INSERT
  8
LAYER1
  2
Group57
 10
0
 20
0
 30
0
  0
TEXT
  8
LAYER1
 62
     7
 10
2.3561
 20
4.5458
 30
0
 40
0.0833
  1
C15x33.9/L4x3x3/8
 50
0
999
Geneva
  0
TEXT
  8
LAYER1
 62
     7
 10
2.5506
 20
4.3513
 30
0
 40
0.0833
  1
Combo Sections
 50
0
999
Geneva
  0
TEXT
  8
LAYER1
 62
     7
 10
2.62
 20
4.1846
 30
0
 40
0.0833
  1
Two Channels
 50
0
999
Geneva
  0
TEXT
  8
LAYER1
 62
     7
 10
4.9395
 20
0.2541
 30
0
 40
0.0833
  1
©1992
 50
0
999
Geneva
  0
TEXT
  8
LAYER1
 62
     7
 10
4.2311
 20
0.0874
 30
0
 40
0.0833
  1
Advanced System Design, Inc.
 50
0
999
Geneva
  0
TEXT
  8
LAYER1
 62
     7
 10
0.1617
 20
0.1013
 30
0
 40
0.0833
  1
Scale 1in = 1ft  Printed at 70%
 50
0
999
Geneva
  0
TEXT
  8
LAYER1
 62
     7
 10
1.0506
 20
8.7819
 30
0
 40
0.0833
  1
40000
 50
0
999
Geneva
  0
TEXT
  8
LAYER1
 62
     7
 10
2.9117
 20
8.3235
 30
0
 40
0.0833
  1
40001
 50
0
999
Geneva
  0
TEXT
  8
LAYER1
 62
     7
 10
1.0506
 20
7.3235
 30
0
 40
0.0833
  1
40002
 50
0
999
Geneva
  0
TEXT
  8
LAYER1
 62
     7
 10
2.9533
 20
6.2402
 30
0
 40
0.0833
  1
40003
 50
0
999
Geneva
  0
TEXT
  8
LAYER1
 62
     7
 10
1.0922
 20
5.768
 30
0
 40
0.0833
  1
40004
 50
0
999
Geneva
  0
TEXT
  8
LAYER1
 62
     7
 10
1.0783
 20
4.0596
 30
0
 40
0.0833
  1
40005
 50
0
999
Geneva
  0
TEXT
  8
LAYER1
 62
     7
 10
2.8422
 20
4.0319
 30
0
 40
0.0833
  1
40006
 50
0
999
Geneva
  0
TEXT
  8
LAYER1
 62
     7
 10
1.1339
 20
2.0041
 30
0
 40
0.0833
  1
40007
 50
0
999
Geneva
  0
ENDBLK
  8
LAYER1
  0
ENDSEC
  0
SECTION
  2
ENTITIES
  0
INSERT
  8
LAYER1
  2
Group58
 10
0
 20
0
 30
0
  0
ENDSEC
  0
EOF
